Oops, an error
Loading. Please wait.

Why Still Bother Bass Tab

version 1
version 1

Whole song

Interactive

3,333 views 1 this week
no commentswrite comment
1 2 3 4 5
please rate
add to favorites
launch autoscroll
font size
0
reset
guitar tuner
Autoscroll
slow
fast
+/-
esc
set tempo
stop
Help us to improve Ultimate-Guitar.com Take our survey!
×
Author
Itchy Poopzkid
Why Still Bother

Chorus:
G|---------------------------------|
D|---------------------------------|
A|---------4-44444-----------------|
E|--6-66-6---------4-44-4--2-22222-|

G|------------------------------------------|
D|------------------------------------------|
A|---------4-44444----33-66-33-----11-44-11-|
E|--6-66-6---------44-----------22----------|

Verse:
G|--------------------------------------|
D|--------------------------------------|
A|--------------------------------------|
E|---------------4-0-2-22-4-1-111-4-1---|

G|--------------------------------------|
D|--------------------------------------|
A|---------4-444------------------------|
E|--6-66-4-------4-0-2-22-4-1-111-4-1---|

G|--------------------------------------|
D|--------------------------------------|
A|---------4-444------------------------|
E|--6-66-4-------4-0-2-22-4-1-111-4-1---|

Bridge:
G|-------------3-----8------------|
D|-----4--------------------------|
A|--------1-1-----6---------64----|
E|--2------------------44-4----64-|

G|-------------3-----8---------------|
D|-----4-----------------------------|
A|--------1-1-----6------------------|
E|--2------------------4-444444444---|

Hear the song for the right timing!
And check out my bass cover:
http://www.youtube.com/watch?v=eKU7_QsQDwM
Suggest correction
Give kudos to tab author, rate the tab!
1 2 3 4 5
comments
print report bad tab
guest
You may want to rate the tab now too:
select rating
Please do not post tabs as comments. Select "correction" instead!