Oops, an error
Loading. Please wait.

Why Still Bother Bass Tab

version 2
version 2

Whole song

Interactive

824 views 1 this week
no commentswrite comment
1 2 3 4 5
please rate
add to favorites
launch autoscroll
font size
0
reset
guitar tuner
Tab Pro tools
  • play this tab
  • loop segment
  • change instrument
  • show fretboard
  • metronome
Autoscroll
slow
fast
+/-
esc
set tempo
stop
Contributor
Difficulty
novice
Artist: Itchy Poopzkid
Song: Why Still Bother
Tabbed by: SeniorKaktus

Sibbi plays it in another voicing(also another tuning(half step down)cause he got a 4string)

Intro(guitar,but you may join if you want)

                           another possibility to play it
G|-----------------|          |------------------|
D|-----------------|          |-3-1---1----------|
A|-8-6---6---------| x5       |-----4---4-3-1----|  x5
E|-----9---9-8-6---|          |---------------4--|
H|---------------9-|          |------------------|

Chorus

G|-----------------------------------| 
D|-----------------------------------| 
A|--------4-44444--------------(4)---| 
E|-6-66-6---------4-44-4-2-222---(4)-| 
H|-----------------------------------| 

G|------------------------------------------|
D|------------------------------------------|
A|--------4-44444----33-66-33----11-44--11--| its a 1,not 11^^
E|-6-66-6---------44----------22------------|
H|------------------------------------------|

G|-----------------------------------| 
D|-----------------------------------| 
A|--------4-44444--------------(4)---| 
E|-6-66-6---------4-44-4-2-222---(4)-| 
H|-----------------------------------| 

G|-------------------------------------------|
D|-------------------------------------------|
A|--------4-44444----33-66-33----11-44--11---| 
E|-6-66-6---------44----------22-----------2-|
H|-------------------------------------------|

Verse 

 ( )only guitar 1st time
G|-(----------------)----------------------|
D|-(-------------3--)----------------------| 
A|-(--------4-44----)----------------------|     (2nd and 3rd time also play
E|-(-6-66-4---------)0-1-2-22-4-1-1-1-1-4-1|       part in brackets)
H|-(----------------)----------------------| 

Bridge

G|----------3--------------------|---------3---------------|  
D|---4---------------------------|---4---------------------| (you may also 
A|------1-1------6-------4-3-----|-----1-1-----6-----------| slap that part)
E|-2----------------4-44-----6-4-|-2--------------4-4444444| 
H|-------------4-----------------|-----------4-------------| 



listen to the song for timing/order of parts
http://www.youtube.com/watch?v=h1KLwyaI5Tw

Have fun :)
if you find some mistakes, send me an email: themagickaktus@web.de

comments
We did not receive enough feedback on this tab! Please rate:
print report bad tab
1 2 3 4 5
I want to post or [tab]
guest
You may want to rate the tab now too:
select rating
Please do not post tabs as comments. Select "correction" instead!