Oops, an error
Loading. Please wait.

You Dont Bring Me Down Tab

version 1
version 1

Whole song

Interactive

7,004 views 3 this week
no commentswrite comment
1 2 3 4 5
2 more votes to show rating
add to favorites
launch autoscroll
font size
0
reset
how to read this tab
guitar tuner
Autoscroll
slow
fast
+/-
esc
set tempo
stop
Help us to improve Ultimate-Guitar.com Take our survey!
×
Author
Difficulty
novice
-----------------------------------------------------------------------------
                   Itchy Poopzkid - You don't bring me down
-----------------------------------------------------------------------------

tabbed by: GuitarSmiley

Email to: roil55@aol.com

hi guys! i've searched a really long time for this tabs, but i've never found
some, so i decided to write them out myself....thei're not 100% right but i think
about 90%....better than nothin' isn't it?

Intro/verse:

1st guitar

e|---------------------------------------------------|\
H|-4------3-------3------3---------------------------| \
G|---5-------5------5------5------5------------------|  \
D|-----5-------5------5------5-----------------------|x2 \
A|---------------------------------------------------|    \
E|---------------------------------------------------|     \
                                                            \ x3
e|---------------------------------------------------|     /
H|-4-------3---3-------4---3-------4---3--------3----|    /
G|---5---5---5---5---5-------5---5---5----5---5------|   /
D|-----5-----------5-----------5------------5--------|  /
A|---------------------------------------------------| /
E|---------------------------------------------------|/

pre-chorus

1st guitar

e|------------------------------------------------------------------|
H|------------------------------------------------------------------|
G|777-------555-------444-------------------------------------------|
D|777-------555-------444---------555-5-7-77777---------------------|  x2
A|555-------333-------222---------555-5-7-77777---------------------|
E|--------------------------------333-3-5-55555---------------------|

2nd guitar

e|---------------------------------------------------|
H|---------------------------------------------------|
G|----777------555--------444------------------------|
D|----777------555--------444----555-5-7-77777-------|  x2
A|----555------333--------222----555-5-7-77777-------|
E|-------------------------------333-3-5-55555-------|

chorus= pre-chorus x 1,5

then play the verse again

then go on with pre-chorus

and the chorus


i'm not sure but i think the bridge is played like this:

bridge:

e|xxxx---xxxx---xxxx---xxxx-----|
H|xxxx---xxxx---xxxx---xxxx-----|
G|xxxx---xxxx55-xxxx---xxxx44---|
D|xxxx55-xxxx55-xxxx77-xxxx44---|  x2
A|xxxx55-xxxx33-xxxx77-xxxx22---|
E|xxxx33-xxxx---xxxx55-xxxx-----|

chorus:

1st guitar

e|-xxxx--xxxx--xxxx--xxxx-----|
H|-xxxx--xxxx--xxxx--xxxx-----|
G|-xxxx--xxxx--xxxx--xxxx-----|
D|-7777--5555--2222--4444-----|  x8
A|-7777--5555--2222--4444-----|
E|-5555--3333--0000--2222-----|

the 2nd guitar plays the verse two more times

then both guitars play the normal chorus two more times 
and then the outro:

e|---|
H|---|
G|-4-|
D|-4-|
A|-2-|
E|---| 


these are my first tabs...sorry if they aren't right, but to me it sounds pretty right...
Suggest correction
Give kudos to tab author, rate the tab!
1 2 3 4 5
comments
print report bad tab
guest
You may want to rate the tab now too:
select rating
Wanna post a correction for this tab? Suggest correction