Oops, an error
Loading. Please wait.

Akin Ka Na Lang chords

version 3
version 3

Whole song

  • 99% accurate based on feedback. Try playing it and... Show more
4,024 views 18 this week
no commentswrite comment
1 2 3 4 5
3 more votes to show rating
add to favorites
×
Save as Personal and add changes to this tab that will be seen only by you. Learn more ›
×
You can save this tab as Personal to edit and correct it or add notes. All changes will be seen only by you. Learn more »
launch autoscroll
font size
0
reset
transpose
0
reset
simplify chords
display chords
guitar tuner
edit
Autoscroll
slow
fast
+/-
esc
set tempo
stop
Author
Difficulty
About this tab version
99% accurate based on feedback. Try playing it and see if you can improve further. Was this info helpful? Yes No
Strumming
There is no strumming pattern for this song yet. and get +5 IQ
Akin ka na lang

Credit to: yen duldulao.,(ivd11@yahoo.com)
Some minor adjustments by t-reks - terioaurora@gmail.com

 C       D7     Em7    A7(9)   Eb7   EbM7
e|-3-|  |-5-|  |-7-|   |-0-|  |-6-|  |-6-|
B|-5-|  |-7-|  |-8-|   |-2-|  |-8-|  |-8-|
G|-3-|  |-5-|  |-7-|   |-0-|  |-6-|  |-7-|
D|-5-|  |-7-|  |-9-|   |-2-|  |-8-|  |-8-|
A|-3-|  |-5-|  |-7-|   |---|  |-6-|  |-6-|
E|---|  |---|  |---|   |---|  |---|  |---|

 EbM7    BbM7 
e|-6-|  |-6-| 
B|-8-|  |-6-|  
G|-6-|  |-7-|  
D|-8-|  |-6-|  
A|-6-|  |-8-| 
E|---|  |-6-|  


Additional chords:
 A7      C/D   Cm/A    GM7    GM7 (high option for start 2nd part of chorus)
e|-5-|  |-5-|  |-3-|  |-2-|  |-7-|
B|-5-|  |-5-|  |-4-|  |-3-|  |-7-|
G|-6-|  |-5-|  |-5-|  |-4-|  |-7-|
D|-5-|  |-5-|  |-5-|  |-0-|  |-5-|
A|-7-|  |-5-|  |-0-|  |-X-|  |-X-|
E|-5-|  |-X-|  |-X-|  |-3-|  |-X-|


Intro: 

First 
   GM7               Em              C7          D7
e|------2-------------0-----------------------x----|
B|------3-------------0-------------5----5--5-x----|
G|------4-------------0-------------3----7--7-x----|
D|---0-------0-----2-------0-----5------------x----|
A|----------------------------3----------7--7-x--0-| 
E|-3------------0-----------------------------x----|

Second (new)
   GM7               Em              A7          D7
e|------2-------------0-----------------------x----|
B|------3-------------0-------------5----5--5-x----|
G|------4-------------0-------------6----7--7-x----|
D|---0-------0-----2-------0-----5------------x----|
A|---------------------------------------7--7-x--0-| 
E|-3------------0-------------5---------------x----|

Repeat First and then...

   G            Em           Eb7         D7
e|------3------------(7)--------------------|
B|------3-------------8-------------8----7~-|
G|------4-------------9-------------6----5~-|
D|---5-------0-----9-------0-----8----------|
A|--------------7-------------6----------7~-|
E|-3----------------------------------------|

Intro: G-Em-C7-D7 G-Em-A7-D7 G-Em-C7-D7 G-Em hold-Eb7-D7

Verse 1:
G    Em        C7   D7           
 'Wag kang maniwala d'yan
G            Em        A7      D7    
 'Di ka n'ya mahal talaga
G       Em     C7      D7          G      Em         A7     D7
 Sayang lang ang buhay mo kung mapupunta ka lang sa kanya
Em  Em+M7          Em7       A7(9)
   Iiwanan ka lang n'yan , mag-ingat ka
Am7        Bm7            Cm7               C/D
 Dagdag ka lamang sa milyun-milyong babae n'ya

Chorus: (major adjustments)
GM7           Bm7                 CM7
 Akin ka na lang (akin ka na lang)
         C/D            GM7
Iingatan ko ang puso mo
           Bm7                 CM7
Akin ka na lang (akin ka na lang)
  C/D
Wala nang hihigit pa sa 'yo

(Intro)
 
Verse 2: 
Use Verse 1 Chords

(Repeat Chorus)

Bridge:
EbM7    Dm  Gm           Cm     F  BbM7  
  Di naman sa sinisiraan ko ang pangit na yan
EbM7                Dm       Gm
  Wag ka dapat sa 'kin magduda
Cm/A                         C/D
Hinding-hindi kita pababayaan

Chorus:
Repeat chorus twice

            
            
Suggest correction
Creating personal tab
Creating personal tab
You can edit any tab online and save it as your Personal.

You can edit, replace or remove any tab part or add personal notes – all changes will be seen only by you.

Personal tabs can be accessed anytime from any device, even offline.
Learn more »
Give kudos to tab author, rate the tab!
1 2 3 4 5
comments
print report bad tab
guest
You may want to rate the tab now too:
select rating
Wanna post a correction for this tab? Suggest correction