Oops, an error
Loading. Please wait.

Beer bass

version 1
version 1

Whole song

Interactive

10,042 views 18 this week
1 commentread comment
1 2 3 4 5
3 more votes to show rating
add to favorites
×
Save as Personal and add changes to this tab that will be seen only by you. Learn more ›
×
You can save this tab as Personal to edit and correct it or add notes. All changes will be seen only by you. Learn more »
launch autoscroll
font size
0
reset
guitar tuner
edit
Autoscroll
slow
fast
+/-
esc
set tempo
stop
Author
Intro:
G|--------------------------------------------|
D|-----------------------5------5/9-7-6---7\5-|
A|-------3-33-3------3-5---5--5----------7----|
E|-3-33-3------3-33-3-------3-----------------|

Verse:

Nais kong...                     ...Nakata..
G|--------------------------------------|
D|------------------------------5-5/7-5-|
A|----5-------7---7\5----5--------------|
E|-5-----3--/7---7---5-----3---3-3------|

...nim pa rin         ...maghiwalay
G|--------5--5/7-5-4-----------|
D|------------------------2----|
A|-3-33-3---3-------2-22-2-----|
E|--------------------------00-|

Ito'y katulad...     ...mamatay
G|----------------------------7-|
D|--------7-----7-5-7--5-7/9-7--|
A|---------------7----7---------|
E|-5-55--5-55-5-----------------|

Pre-Chorus:

Giliw...                 ...limutin. Ang mga...
G|----------------------------5------------------------|
D|-----------------------------5----------7----14---12-|
A|--------------------------3---3-3h5-3----------------|
E|-3-3h5-5p3--0h3-3h5-5p3--3-----------5-5---12---10---|

...araw...
G|-------------------------------------|
D|---9-7h9-------10h12-12-10-9---------|
A|-------------------------------------|
E|-7------10-9-8---------------8h10-10-|

...mga anak...
G|---------------------------------|
D|---9-7h9-------10h12-12h9--------|
A|---------------------------------|
E|-7------10-9-8-----------8h10-10-|

Lahat ng ito'y...                  ...kaya ngayon
G|-------------------------------------|
D|-------------------0-2-0-------------|
A|------------5-7---2------2--------5--|
E|-7--x7-x7--7-7---0---------5-55------|

Chorus:

Ibuhos na...
G|-----------------------------------|
D|-----------------------------------|
A|-----------------------------------|
E|-8888888888888888-3333333333333333-|

...sa aking lalamunan
G|---------------------------------------|
D|---------------------------------------|
A|-------------------2222-4444-5555-7777-|
E|-00000000-22222222---------------------|

...upang malunod
G|-----------------------------------|
D|-----------------------------------|
A|-----------------------------------|
E|-8888888888888888-3333333333333333-|

...ang puso kong nahihirapan
G|---------------------------------------|
D|---------------------------------------|
A|-------------------2222-4444-5555-7777-|
E|-00000000-22222222---------------------|

Bawat patak
G|-----------------------------------|
D|-----------------------------------|
A|-----------------------------------|
E|-8888888888888888-7777777777777777-|

Ano ba talangang...
G|----------|
D|----------|
A|--7--5--3-|
E|----------|

Ang beer na 'to...
G|-----
D|-----
A|---5-
E|-5---

Adlib:

G|--------------------------------------------|
D|-----------------------5------5/9-7-6---7\5-|
A|-------3-33-3------3-5---5--5----------7----|
E|-3-33-3------3-33-3-------3-----------------|

Verse:

Nais kong...
G|----------------------------------------------------------|
D|--------------------------------------------------5-5/7-5-|
A|--------5-55-5---------7---7\5--------5-55-5--------------|
E|-5-55-5--------3-33-3/7---7---5-55-5--------3-33-3-3------|

G|--------5-5/7-5-4-----------|
D|------------------------2---|
A|-3-33-3--3--------2-22-2----|
E|-------------------------00-|

G|----------------------------7-|
D|--------7-----7-5-7--5-7/9-7--|
A|---------------7----7---------|
E|-5-55--5-55-5-----------------|

Chorus:

Ibuhos na...
G|-----------------------------------|
D|-----------------------------------|
A|-----------------------------------|
E|-8888888888888888-3333333333333333-|

...sa aking lalamunan
G|---------------------------------------|
D|---------------------------------------|
A|-------------------2222-4444-5555-7777-|
E|-00000000-22222222---------------------|

...upang malunod
G|-----------------------------------|
D|-----------------------------------|
A|-----------------------------------|
E|-8888888888888888-3333333333333333-|

...ang puso kong nahihirapan
G|---------------------------------------|
D|---------------------------------------|
A|-------------------2222-4444-5555-7777-|
E|-00000000-22222222---------------------|

Bawat patak
G|------------------------|
D|----------10----------9-|
A|------8h10---------7h9--|
E|-88888--------77777-----|

Ano ba talangang...
G|----------|
D|----------|
A|--7--5--3-|
E|----------|

Ang beer na 'to o ang pag-ibig mo
G|-----------------------|
D|-----------------------|
A|---5------3h5----------|
E|-5---3-33----5\3-break-|

Ad Lib:

G|--------------------|
D|-anticipation-5-5\3-|
A|--------------------|
E|--------------------|

G|--------5--5/7-5-4-----------|
D|-------------------------2---|
A|-3-33-3--3---------2-22-2----|
E|--------------------------00-|

G|----------------------------------------7-|
D|--------7-----7/9-7--------7-5-7-5-7/9-7--|
A|-------------------7--------7---7---------|
E|-5-55--5-55-5-------7-5---5---------------|

Pre-Chorus:

Giliw...                 ...limutin. Ang mga...
G|----------------------------5------------------------|
D|-----------------------------5----------7----14---12-|
A|--------------------------3---3-3h5-3----------------|
E|-3-3h5-5p3--0h3-3h5-5p3--3-----------5-5---12---10---|

...araw...
G|---------------------------------|
D|---9-7h9-------10h12-12h9--------|
A|---------------------------------|
E|-7------10-9-8-----------8h10-10-|

...mga anak...
G|---------------------------------|
D|---9-7h9-------10h12-12h9--------|
A|---------------------------------|
E|-7------10-9-8-----------8h10-10-|

Lahat ng ito'y...                  ...kaya ngayon
G|-------------------------------------|
D|-------------------0-2-0-------------|
A|------------5-7---2------2--------5--|
E|-7--x7-x7--7-7---0---------5-55------|

Chorus:

Ibuhos na...
G|-----------------------------------|
D|-----------------------------------|
A|-----------------------------------|
E|-8888888888888888-3333333333333333-|

...sa aking lalamunan
G|---------------------------------------|
D|---------------------------------------|
A|-------------------2222-4444-5555-7777-|
E|-00000000-22222222---------------------|

...upang malunod
G|-----------------------------------|
D|-----------------------------------|
A|-----------------------------------|
E|-8888888888888888-3333333333333333-|

...ang puso kong nahihirapan
G|---------------------------------------|
D|---------------------------------------|
A|-------------------2222-4444-5555-7777-|
E|-00000000-22222222---------------------|

Bawat patak
G|-----------------------------------|
D|-----------------------------------|
A|-----------------------------------|
E|-8888888888888888-7777777777777777-|

Ano ba talangang...
G|----------|
D|----------|
A|--7--5--3-|
E|----------|

Outro:

Ang beer na 'to...	...pag-ibig...
G|----------------------|
D|----------------------|
A|----------------------|
E|-5-55-5-7-77-7-8-8-10-|

...mo
G|------------------|
D|------------------|
A|-------3-33-3-----|
E|-3-33-3------3-33-|

G|----5----------|
D|---5-53--------|
A|--3----53\0/5--|
E|-3-----------3-|
Suggest correction
Creating personal tab
Creating personal tab
You can edit any tab online and save it as your Personal.

You can edit, replace or remove any tab part or add personal notes – all changes will be seen only by you.

Personal tabs can be accessed anytime from any device, even offline.
Learn more »
Give kudos to tab author, rate the tab!
1 2 3 4 5
comments
print report bad tab
1 comment total.
0 reply
keanubartolata 10 Oct 08, 2011 03:34 AM

pwed video... di ko masabayan eh!! naiinda ako sa vocals

guest
You may want to rate the tab now too:
select rating
Wanna post a correction for this tab? Suggest correction