Oops, an error
Loading. Please wait.

Beer Chords

version 1
version 1

Interactive

280,724 views 1,020 this week
4 commentsread comments
1 2 3 4 5
accurate
x 6
add to favorites
launch autoscroll
font size
0
reset
transpose
0
reset
simplify chords
display chords
guitar tuner
Autoscroll
slow
fast
+/-
esc
set tempo
stop
Help us to improve Ultimate-Guitar.com Take our survey!
×
Author
mer 226
[Intro]

E|-------2--------7--------2---7-7--3-3--------3-5--7--3--5--7----5--4----|
B|-0-0-3---1-0--5---1-0--3---------------5-3------------------------------|
G|------------------------------------------------------------------------|
D|------------------------------------------------------------------------|
A|------------------------------------------------------------------------|
E|------------------------------------------------------------------------|


[Verse]

E7        Am7          D7
Nais kong magpakalasing
         G              E7
Dahil wala ka na
      Am7               D7 
Nakatingin sa salamin
          G E7
At nag-iisa
       C
Nakatanim pa rin 

Ang gumamelang
Cm                        G         E7
Binalik mo sa`kin nang tayo`y maghiwalay
Am7
Ito`y katulad
            C
Ng damdamin ko
                    Am7                D7
Kahit buhusan mo ng beer ayaw pang mamatay


[Pre-Chorus]

G                     C             Am
Giliw, wag mo sanang limutin
         Bm                     Em
Ang mga araw na hindi sana maglaho
     Bm                      Em
Mga anak at bahay nating pinaplano
  Bm              CM7
Lahat ng ito`y nawala
            Am7      D7
Nung iniwan mo ako kaya ngayon


[Chorus]

C              Bm
Ibuhos na ang beer
         Em       Bm
Sa aking lalamunan
C             Bm
Upang malunod na ang
      Em        Bm
Puso kong nahihirapan
  CM7         B7
Bawat patak anong sarap
    Em      Em7                  CM7
Ano ba talagang mas gusto ko
     Am7
Ang beer na ito 
   D7           G
O ang pag-ibig mo


[Instrumental]

E|-------2--------7--------2---7-7--3-3--------3-5--7--3--5--7----5--4----|
B|-0-0-3---1-0--5---1-0--3---------------5-3------------------------------|
G|------------------------------------------------------------------------|
D|------------------------------------------------------------------------|
A|------------------------------------------------------------------------|
E|------------------------------------------------------------------------|


[Verse]

          Am7           D7
Nais kong magpakasabog
        Gmaj7           E7
Dahil olats ako
      Am7               D7 
Kahit ano hihithitin
          G     G7
Kahit tambutso
       Cmaj7                    Cm
Kukuha ako ng Beer at ipapakulo
                G                   E7
Sa kaldero't lalanghapin Ang usok nito
Am7                         C
lahat ay aking gagawin
                    Am7                D7
Upang hindi ko na isiping Nag-iisa na ako


[Chorus]

C              Bm
Ibuhos na ang beer
         Em       Bm
Sa aking lalamunan
C             Bm
Upang malunod na ang
      Em        Bm
Puso kong nahihirapan
  CM7         B7
Bawat patak anong sarap
    Em      Em7                  CM7
Ano ba talagang mas gusto ko
     Am7
Ang beer na ito 
   D7           G
O ang pag-ibig mo


[Instrumental]

C Cm G E7 Am7 C Am7 D7


[Pre-Chorus]

G                     C             Am
Giliw, wag mo sanang limutin
         Bm                     Em
Ang mga araw na hindi sana maglaho
     Bm                      Em
Mga anak at bahay nating pinaplano
  Bm              CM7
Lahat ng ito`y nawala
            Am7      D7
Nung iniwan mo ako kaya ngayon


[Chorus]

C              Bm
Ibuhos na ang beer
         Em       Bm
Sa aking lalamunan
C             Bm
Upang malunod na ang
      Em        Bm
Puso kong nahihirapan
  CM7         B7
Bawat patak anong sarap
    Em      Em7                  CM7
Ano ba talagang mas gusto ko
     Am7
Ang beer na ito 
    Am7
Ang beer na ito 
    Bm
Ang beer na ito
    C              D
Ang beer na ito o ang
           G
pag-ibig mo..


[Outro]

E|-------2--------7--------2---7-7--3-3--------3-5--7--3------------------|
B|-0-0-3---1-0--5---1-0--3---------------5-3------------------------------|
G|------------------------------------------------------------------------|
D|------------------------------------------------------------------------|
A|------------------------------------------------------------------------|
E|------------------------------------------------------------------------|
Suggest correction new What's this?
You can suggest a correction to this tab. Community and Mods will review your correction and vote to approve or reject it.
comments
print report bad tab
4 comments total. Showing first comments.
+1 reply
edwix0000 30 wrote on April 21 2007, 02:50 am

i hate watching chord diagrams!it stinks!i prefer guitar tabs lol.
but ur tuning is alryt.gud job pal.

-2 reply
vampira12 25 wrote on April 6 2008, 02:39 am

mali man yan lahat!

0 reply
emmanuel.rabino 16 wrote on May 27 2013, 06:50 am

hay ganda naman

guest
You may want to rate the tab now too:
select rating
Please do not post tabs as comments. Select "correction" instead!