Oops, an error
Loading. Please wait.

Gusto Ko Lamang Sa Buhay Chords

version 1
version 1

Whole song

58,677 views 33 this week
2 commentsread comments
1 2 3 4 5
excellent!
x 6
add to favorites
launch autoscroll
font size
0
reset
transpose
0
reset
display chords
guitar tuner
Tab Pro tools
  • play this tab
  • loop segment
  • change instrument
  • show fretboard
  • metronome
×
Best way to learn
"Gusto Ko Lamang Sa Buhay"
Autoscroll
slow
fast
+/-
esc
set tempo
stop
Contributor
-------------------------------------------------------------------------------
                     GUSTO KO LAMANG SA BUHAY - Itchyworms
-------------------------------------------------------------------------------

Tabbed by: Lino
Email: lynus4144@yahoo(dot)com

Tuning: Standard

Nilagay ko lang yung chords...
Pero mas maganda kung power chords gagamitin mo...


Intro:

e|-10-X-10--------9-X-9---------------10-X-10--------9-X-9-------------------|
B|---------------------------------------------------------------------------|
G|---------9-11-9-------9-11-9-11-9-----------9-11-9-------9-11-9-11-9-------|
D|---------------------------------------------------------------------------|
A|---------------------------------------------------------------------------|
E|---------------------------------------------------------------------------|

D - G - D - G

Bm
Ayokong maghintay pa sa imposible
A
Ayoko ng mga romatikong sine
G                                  A
Ayoko nang umasa pa sa walang silbi

Bm
Ayokong tumawid pag pinagbabawal
A
Ayoko ng kapeng maraming asukal
G                                   A
Ayokong bumili ng underwear na mahal

Chorus:
D                             G
Gusto ko lamang sa buhay ay yakapin mo ako
D                             G
Gusto ko lamang sa buhay ay yakapin mo ako
A               Bm
Hindi naman ako milyonaryo
A                 Bm
Basta't araw-araw yakap mo ko
G
Feeling ko ang yaman yaman ko

D - G - D - G

Bm
Ok lang kung 'di maging presidente
A
Ok lang kung mawalan ng kuryente
G                                       A
Ok lang kung ang bumbilya'y walang sindi

Bm
Ok lang kung ketchup lamang ang ulam
A
Ang gulay ay hindi naman kailangan
G                                           A
Basta't sa sandwich mo ako ang iyong palaman


Chorus:
D                             G
Gusto ko lamang sa buhay ay yakapin mo ako
D                             G
Gusto ko lamang sa buhay ay yakapin mo ako
A               Bm
Hindi naman ako milyonaryo
A                 Bm
Basta't araw-araw yakap mo ko
G                          D
Feeling ko ang yaman yaman ko
G
Feeling ko ang yaman yaman ko

D - G

Bridge:
Bb
Ang dami ko pang sinabi
Bb
Tungkol sa aking sarili
F
Lahat ng yun 'di na bale
F
Ikaw lang ang importante

Bb
Yakapin mo ako
Bb
Lunurin sa iyo
G
Sa loob ng 'yong mga bisig
A                         D
Dama ko ang 'yong pag-ibig

G             D
Yakapin mo ako
                            G
Gusto ko lamang sa buhay ay yakapin mo ako

[Repeat Chorus]

Outro: D - G - D - G

| /  slide up
| \  slide down
| h  hammer-on
| p  pull-off
| ~  vibrato
| +  harmonic
| x  Mute note
===============================================================================
comments
print report bad tab
2 comments total.
0 reply
Lino wrote on March 15 2009, 08:06 am

Sa bandang 'Feeling ko ang yaman yaman ko'...
Pwedeng ganito ang gawin:

e|---------------------------------------------------------------------------|
B|---------------------------------------------------------------------------|
G|---------------------------------------------------------------------------|
D|---------------------------------------------------------------------------|
A|--10--9--7--5--------------------------------------------------------------|
E|---------------7--5--3--5--------------------------------------------------|

Tapos biglang lipat sa D...
Yun lang...

Happy playing... - Lino

0 reply
Lino wrote on March 15 2009, 08:19 am

Actually 2 guitars ang intro...
Inimprovise ko lang para sa isang gitara... :)

I want to post or [tab]
guest
You may want to rate the tab now too:
select rating
Please do not post tabs as comments. Select "correction" instead!