Oops, an error
Loading. Please wait.

Loveteam tab

version 2
version 2
9,605 views 6 this week
10 commentsread comments
1 2 3 4 5
1 last vote to show rating
add to favorites
×
Save as Personal and add changes to this tab that will be seen only by you. Learn more ›
×
You can save this tab as Personal to edit and correct it or add notes. All changes will be seen only by you. Learn more »
launch autoscroll
font size
0
reset
how to read this tab
guitar tuner
edit
Autoscroll
slow
fast
+/-
esc
set tempo
stop
Author
Itchyworms
Loveteam..

Try Nyo..No Perfect Tab pero basta play nyo..sounds ok nmn..wala nga lang solo..A Big Fan Of Itchyworms..

Intro

|-----------------------------------|
|-----------------------------------|
|---44---55---44---5---555----------|
|---55---55---55---5---555----------|
|---33---33---33---3---333----------|
|-----------------------------------|

|-----------------------------------------0-----|
|-----------------------------------------0-----|
|---44---55---44---5---55--------44---5---7-----|
|---55---55---55---5---55--(4x)--55---5---7-----|
|---33---33---33---3---33--------33---3---------|
|-----------------------------------------------|

Verse:
|--------------------------------------------------|
|--------------------------------------------------|
|---44---55---44---55(5)-----44---55---44---55(5)--|
|---55---55---55---55(5)-----66---66---66---66(6)--|
|--------------------------------------------------|
|--------------------------------------------------|

|--------------------------------------------------|
|--------------------------------------------------|
|---55---77---55---77(7)-----77---99---77---99(9)--|
|---77---77---77---77(7)-----77---77---77---77(7)--|
|--------------------------------------------------|
|--------------------------------------------------|

|--------------------------------------------------|
|--------------------------------------------------|
|---55---77---88---77(7)-----44---55---44---55(5)--|
|---66---66---66---66(6)-----55---55---55---55(5)--|
|--------------------------------------------------|
|--------------------------------------------------|

|--------------------------------------------------|
|--------------------------------------------------|
|---44---55---44---55(5)-----55---77---55---77(7)--|
|---66---66---66---66(6)-----77---77---77---77(7)--|
|--------------------------------------------------|
|--------------------------------------------------|

|--------------------------------------------------|
|--------------------------------------------------|
|---77---99---77---99(9)-----55---77---88---77(7)--|
|---77---77---77---77(7)-----66---66---66---66(6)--|
|--------------------------------------------------|
|--------------------------------------------------|
Pre chorus:must be C-D three times then F - G but not sure help me out on this one..pls do comment
|---0---0--------------------------|
|---5---7------------------6---8---|
|---5---7--(3 times) then--5---7---|
|---5---7------------------3---5---|
|----------------------------------|
|----------------------------------|

Chorus:strum nlng..listen to the song to figure out the timing..mejo mhirap pakinggan...

|---0-----0-----0-----0------|---0---0---0---0---0----------|
|---6-----6-----0-----0------|---6---6---0---0---0------6---|
|---5-----5-----4-----6------|---5---5---4---6---7------5---|
|---7-----6-----5-----7------|---7---6---5---7---7------6---|
|---------------------0------|---------------0--------------|
|----------------------------|------------------------------|


comment nyo..rate din..friendster! add me up..benn_drops@you know dot com





Suggest correction
Creating personal tab
Creating personal tab
You can edit any tab online and save it as your Personal.

You can edit, replace or remove any tab part or add personal notes – all changes will be seen only by you.

Personal tabs can be accessed anytime from any device, even offline.
Learn more »
Give kudos to tab author, rate the tab!
1 2 3 4 5
comments
print report bad tab
10 comments total. Showing first comments.
0 reply
bennfrets 30 Feb 05, 2007 02:35 AM

add nyo sa pinakadulo ng verse.....lol
|--------------------------
|--------------------------
|--55---77---88---77(7)----
|--66---66---66---66(6)----
|--------------------------
|--------------------------

0 reply
No_Falter08 2,414 Feb 08, 2007 10:48 PM

Try mo tab q!!ung ver.1:-)

0 reply
kulangot 10 Feb 20, 2007 04:58 PM

tanga ka bA?

guest
You may want to rate the tab now too:
select rating
Wanna post a correction for this tab? Suggest correction