Oops, an error
Loading. Please wait.

Loveteam tab

version 3
version 3
16,781 views 45 this week
5 commentsread comments
1 2 3 4 5
x 3
add to favorites
×
Save as Personal and add changes to this tab that will be seen only by you. Learn more ›
×
You can save this tab as Personal to edit and correct it or add notes. All changes will be seen only by you. Learn more »
launch autoscroll
font size
0
reset
how to read this tab
guitar tuner
edit
Autoscroll
slow
fast
+/-
esc
set tempo
stop
Author
Difficulty
LoveTeam - Itchyworms
Tabbed by: Oscar Miralles
Email: miralles92@yahoo.com
This is my first tab, hope u like it!!
Tuning: EADGBe

[Intro]
e|---------------------------|
B|-22-33-22-33-3-------------|  Repeat several times then
G|-22-22-22-22-2-------------|
D|---------------------------|
A|---------------------------|
E|---------------------------|

e|---------5-----------------|
B|-22-333--5-----------------|
G|-22-222--------------------|
D|---------------------------|
A|---------------------------|
E|---------------------------|

[Verse 1]
e|---------------------------------------------------------------------------|
B|-22-33-22-33-22-33-22-33-33-55-33-55-55-77-55-77---------------------------|
G|-22-33-22-33-22-33-22-33-44-44-44-44-55-55-55-55---------------------------|
D|---------------------------------------------------------------------------|
A|---------------------------------------------------------------------------|
E|---------------------------------------------------------------------------|
Repeat several times ^

[Chorus]
Em,G,A,Bm,                    Em,G,A,Bm,Em,A
e|-------3333--0000--2222-----------3333--0000------------0~---|
B|-------3333--2222--3333-----------3333--2222------------2~---|
G|-0000--0000--2222--4444-----0000--0000--2222--4444-000--2~---|
D|-2222--0000--2222--4444-----2222--0000--2222--4444-222--2~---|
A|-2222--2222--0000--2222-----2222--2222--0000--2222-222--0~---|
E|-0000--3333-----------------0000--3333-------------000-------|

[Interlude] Repeat intro
e|---------------------------|
B|-22-33-22-33-3-------------|  Repeat several times then
G|-22-22-22-22-2-------------|
D|---------------------------|
A|---------------------------|
E|---------------------------|

e|---------5-----------------|
B|-22-333--5-----------------|
G|-22-222--------------------|
D|---------------------------|
A|---------------------------|
E|---------------------------|

[Verse 2] Repeat verse 1 riff
e|---------------------------------------------------------------------------|
B|-22-33-22-33-22-33-22-33-33-55-33-55-55-77-55-77---------------------------|
G|-22-33-22-33-22-33-22-33-44-44-44-44-55-55-55-55---------------------------|
D|---------------------------------------------------------------------------|
A|---------------------------------------------------------------------------|
E|---------------------------------------------------------------------------|
Repeat several times ^

[Chorus]
Em,G,A,Bm,                    Em,G,A,Bm,Em,A
e|-------3333--0000--2222-----------3333--0000------------0~---|
B|-------3333--2222--3333-----------3333--2222------------2~---|
G|-0000--0000--2222--4444-----0000--0000--2222--4444-000--2~---|
D|-2222--0000--2222--4444-----2222--0000--2222--4444-222--2~---|
A|-2222--2222--0000--2222-----2222--2222--0000--2222-222--0~---|
E|-0000--3333-----------------0000--3333-------------000-------|

[Adlib]
e|-5--------------------------------------------------------------------------|
B|-5--------------------------------------------------------------------------|
G|-7--------------------------------------------------------------------------|
D|-7----1212-14-14h16-9---1212-14-14h16-9---Repeat several times then---------|
A|-5--------------------------------------------------------------------------|
E|-0--------------------------------------------------------------------------|

e|---------------------------------------------------------------------------|
B|-------------------12-10---------------------------------------------------|
G|-------------12-14---------------------------------------------------------|
D|--1212-14-16---------------------------------------------------------------|
A|---------------------------------------------------------------------------|
E|---------------------------------------------------------------------------|

[Chorus]
Em,G,A,Bm,                    Em,G,A,Bm,Em,A
e|-------3333--0000--2222-----------3333--0000------------0~---|
B|-------3333--2222--3333-----------3333--2222------------2~---|
G|-0000--0000--2222--4444-----0000--0000--2222--4444-000--2~---|
D|-2222--0000--2222--4444-----2222--0000--2222--4444-222--2~---|
A|-2222--2222--0000--2222-----2222--2222--0000--2222-222--0~---|
E|-0000--3333-----------------0000--3333-------------000-------|

[Outro]
e|---------------------------------------------------------------------------|
B|---------------------------------------------------------------------------|
G|----------------------------------------------1414-16-14-------------------|
D|-12/14-12-9-1212-9-1212-9-12--12/14-12-14-12-------------------------------|
A|---------------------------------------------------------------------------|
E|---------------------------------------------------------------------------|

e|---------------------------------------------------------------------------|
B|---------------------------------------------------------------------------|
G|---------------------------------------------------------------------------|
D|-12/14-12--1616-20-19-18—12/14-12-14-12------------------------------------|
A|---------------------------------------------------------------------------|
E|---------------------------------------------------------------------------|

[End]

************************************

| ~  Vibrato
| h  Hammer-on
| /  Slide up

************************************

            
            
Suggest correction
Creating personal tab
Creating personal tab
You can edit any tab online and save it as your Personal.

You can edit, replace or remove any tab part or add personal notes – all changes will be seen only by you.

Personal tabs can be accessed anytime from any device, even offline.
Learn more »
Give kudos to tab author, rate the tab!
1 2 3 4 5
comments
print report bad tab
5 comments total. Showing first comments.
0 reply
doobidoo 6,271 May 03, 2007 12:17 AM

mali ang chords mo....hehehe...

0 reply
miralles92 83 Jun 09, 2007 12:56 AM

Di ksi akin yan ehh, pirated yung chords, kinuha ko lng dyann hahaha

0 reply
tedhellcaster 10 Nov 28, 2007 06:42 PM

patay. pinost pa d2 sa UG

guest
You may want to rate the tab now too:
select rating
Wanna post a correction for this tab? Suggest correction