Oops, an error
Loading. Please wait.

Lo Egin bass

by Itoiz
34 views 1 this week
no commentswrite comment
1 2 3 4 5
2 more votes to show rating
add to favorites
×
Save as Personal and add changes to this tab that will be seen only by you. Learn more ›
×
You can save this tab as Personal to edit and correct it or add notes. All changes will be seen only by you. Learn more »
launch autoscroll
font size
0
reset
guitar tuner
edit
Autoscroll
slow
fast
+/-
esc
set tempo
stop
Author
Difficulty
5Artist : Itoiz
Album : Musikaz Blai
Song : Lo Egin


[Intro]

G|----------------|----------------|----------------|----------------|
D|----------------|----------------|----------------|------------5---|
A|----------------|--------5---7---|----------------|--7p6-5h7-------|
E|--5-3-5-3---0---|--0-3-5---------|--5-3-5-3---0---|----------------|
  1 + 2 + 3 + 4 +  1 + 2 + 3 + 4 +  1 + 2 + 3 + 4 +  1 + 2 + 3 + 4 +  

G|----------------|----------------|----------------|----------------|
D|----------------|----------------|----------------|----------------|
A|----------------|--------5---7---|----------------|--7p6-6p5-------|
E|--5-3-5-3---0---|--0-3-5---------|--5-3-5-3---0---|------------3---|
  1 + 2 + 3 + 4 +  1 + 2 + 3 + 4 +  1 + 2 + 3 + 4 +  1 + 2 + 3 + 4 + 


[Verse]

G|----------------|----------------|----------------|----------------|
D|----------------|----------------|----------------|----------------|
A|----3-------3---|----------------|----3---5---6---|7---------------|
E|5-------5-------|0---1---3---4---|5---------------|----0---3---4---|
  1 + 2 + 3 + 4 +  1 + 2 + 3 + 4 +  1 + 2 + 3 + 4 +  1 + 2 + 3 + 4 +  

G|----------------|----------------|----------------|--9---8---7---5-|
D|----------------|----------------|----------------|----------------|
A|----3-------3---|----------------|----3---5---6---|7---6---5---3---|
E|5-------5-----5-|0---1---3---4---|5---------------|----------------|
  1 + 2 + 3 + 4 +  1 + 2 + 3 + 4 +  1 + 2 + 3 + 4 +  1 + 2 + 3 + 4 +  

G|----------------|----------------|----------------|----------------|
D|----------------|----------------|----------------|----------------|
A|----3-----------|----------------|----3---5---6---|7---------------|
E|5-------5---3-1-|0---1---3---4---|5---------------|----0---3---4---|
  1 + 2 + 3 + 4 +  1 + 2 + 3 + 4 +  1 + 2 + 3 + 4 +  1 + 2 + 3 + 4 +  

G|----------------|----------------|----------------|----------------|
D|----------------|----------------|----------------|----------------|
A|----3-----------|----------------|----3---5---6---|7---------------|
E|5-------5---3-1-|0---1---3---4---|5---------------|----0---1---0---|
  1 + 2 + 3 + 4 +  1 + 2 + 3 + 4 +  1 + 2 + 3 + 4 +  1 + 2 + 3 + 4 +  


[Pre-Chorus]

G|--------------5-|----------------|
D|------5-----5---|------3-2---0---|
A|----5---3-3-----|----3-----------| x2
E|3-3-------------|1-1-------------|
  1 + 2 + 3 + 4 +  1 + 2 + 3 + 4 +  

[Chorus]

G|----------------|----------------|----------------|----------------|
D|----------------|----------------|----------------|----------------|
A|----------------|----------------|----------------|5-------7-------| x2
E|5---5---5---5---|5---5---5---5---|5---5---5---3-5-|----------------|
  1 + 2 + 3 + 4 +  1 + 2 + 3 + 4 +  1 + 2 + 3 + 4 +  1 + 2 + 3 + 4 +  


[Bridge]

G|----------------|----------------|----------------|----------------|
D|----------------|----------------|----------------|------------5---|
A|----------------|--------5---7---|----------------|--7p6-5h7-------|
E|--5-3-5-3---0---|--0-3-5---------|--5-3-5-3---0---|----------------|
  1 + 2 + 3 + 4 +  1 + 2 + 3 + 4 +  1 + 2 + 3 + 4 +  1 + 2 + 3 + 4 +  

G|----------------|----------------|----------------|----------------|
D|----------------|----------------|----------------|----------------|
A|----------------|--------5---7---|----------------|--7p6-6p5-------|
E|--5-3-5-3---0---|--0-3-5---------|--5-3-5-3---0---|------------3---|
  1 + 2 + 3 + 4 +  1 + 2 + 3 + 4 +  1 + 2 + 3 + 4 +  1 + 2 + 3 + 4 + 


[Verse]

G|----------------|----------------|----------------|----------------|
D|----------------|----------------|----------------|----------------|
A|----3-----------|----------------|----3---5---6---|7-----------x-3-|
E|5-------5---3-1-|0---1---3---4---|5---------------|----0---3-------|
  1 + 2 + 3 + 4 +  1 + 2 + 3 + 4 +  1 + 2 + 3 + 4 +  1 + 2 + 3 + 4 +  

G|----------------|----------------|----------------|--9---8---7---5-|
D|----------------|----------------|----------------|----------------|
A|----3-----------|----------------|----3---5---6---|7---6---5---3---|
E|5-------5---3-1-|0---1---3---4---|5---------------|----------------|
  1 + 2 + 3 + 4 +  1 + 2 + 3 + 4 +  1 + 2 + 3 + 4 +  1 + 2 + 3 + 4 +  

G|----------------|----------------|----------------|----------------|
D|----------------|----------------|----------------|----------------|
A|----3-----------|----------------|----3---5---6---|7---------------|
E|5-------5---3-1-|0---3---0---3-4-|5---------------|----0---1---3---|
  1 + 2 + 3 + 4 +  1 + 2 + 3 + 4 +  1 + 2 + 3 + 4 +  1 + 2 + 3 + 4 +  

G|----------------|----------------|----------------|----------------|
D|----------------|----------------|----------------|----------------|
A|----3-----------|----------------|----3---5---6---|7---------------|
E|5-------5---3---|0---3---0---3-4-|5---------------|----0---1---0---|
  1 + 2 + 3 + 4 +  1 + 2 + 3 + 4 +  1 + 2 + 3 + 4 +  1 + 2 + 3 + 4 +  


[Pre-Chorus]

G|--------------5-|----------------|
D|------5-----5---|------3-2---0---|
A|----5---3-3-----|----3-----------| x2
E|3-3-------------|1-1-------------|
  1 + 2 + 3 + 4 +  1 + 2 + 3 + 4 +  


[Chorus]

G|----------------|----------------|----------------|----------------|
D|----------------|----------------|----------------|----------------|
A|----------------|----------------|----------------|5-------7-------| x2
E|5---5---5---5---|5---5---5---5---|5---5---5---3-5-|----------------|
  1 + 2 + 3 + 4 +  1 + 2 + 3 + 4 +  1 + 2 + 3 + 4 +  1 + 2 + 3 + 4 +  


[Bridge]

G|----------------|----------------|----------------|----------------|
D|----------------|----------------|----------------|------------5---|
A|----------------|--------5---7---|----------------|--7p6-5h7-------|
E|--5-3-5-3---0---|--0-3-5---------|--5-3-5-3---0---|----------------|
  1 + 2 + 3 + 4 +  1 + 2 + 3 + 4 +  1 + 2 + 3 + 4 +  1 + 2 + 3 + 4 +  

G|----------------|----------------|----------------|----------------|
D|----------------|----------------|----------------|----------------|
A|----------------|--------5---7---|----------------|--7p6-6p5-------|
E|--5-3-5-3---0---|--0-3-5---------|--5-3-5-3---0---|------------3---|
  1 + 2 + 3 + 4 +  1 + 2 + 3 + 4 +  1 + 2 + 3 + 4 +  1 + 2 + 3 + 4 + 


[Verse]

G|----------------|----------------|----------------|----------------|
D|----------------|----------------|----------------|----------------|
A|----3-----------|----------------|----3---5---6---|7---------------|
E|5-------5---3-1-|0---1---3---4---|5---------------|----0---3---4---|
  1 + 2 + 3 + 4 +  1 + 2 + 3 + 4 +  1 + 2 + 3 + 4 +  1 + 2 + 3 + 4 +  

G|----------------|----------------|----------------|--9---8---7---5-|
D|----------------|----------------|----------------|----------------|
A|----3-----------|----------------|---3----5---6---|7---6---5---3---|
E|5-------5---3-1-|0---1---3---4---|5---------------|----------------|
  1 + 2 + 3 + 4 +  1 + 2 + 3 + 4 +  1 + 2 + 3 + 4 +  1 + 2 + 3 + 4 +  

G|----------------|----------------|----------------|----------------|
D|----------------|----------------|----------------|----------------|
A|----3-----------|----------------|----3---5---6---|7---------------|
E|5-------5---3---|0---1---3---4---|5---------------|----0---3---4---|
  1 + 2 + 3 + 4 +  1 + 2 + 3 + 4 +  1 + 2 + 3 + 4 +  1 + 2 + 3 + 4 +  

G|----------------|----------------|----------------|----------------|
D|----------------|----------------|----------------|----------------|
A|----3-------5---|7---------------|----3---5---6---|7---------------|
E|5-------5-------|----0---3---4---|5---------------|----0---1---0---|
  1 + 2 + 3 + 4 +  1 + 2 + 3 + 4 +  1 + 2 + 3 + 4 +  1 + 2 + 3 + 4 +  



[Pre-Chorus]

G|--------------5-|----------------|
D|------5-----5---|------3-2---0---|
A|----5---3-3-----|----3-----------| x2
E|3-3-------------|1-1-------------|
  1 + 2 + 3 + 4 +  1 + 2 + 3 + 4 +  


[Chorus]

G|----------------|----------------|----------------|----------------|
D|----------------|----------------|----------------|----------------|
A|----------------|----------------|----------------|5-------7-------| x2
E|5---5---5---5---|5---5---5---5---|5---5---5---3-5-|----------------|
  1 + 2 + 3 + 4 +  1 + 2 + 3 + 4 +  1 + 2 + 3 + 4 +  1 + 2 + 3 + 4 +  


[Outro]

G|----------------|----------------|----------------|----------------|
D|----------------|----------------|----------------|------------5---|
A|----------------|--------5---7---|----------------|--7p6-5h7-------|
E|--5-3-5-3---0---|--0-3-5---------|--5-3-5-3---0---|----------------|
  1 + 2 + 3 + 4 +  1 + 2 + 3 + 4 +  1 + 2 + 3 + 4 +  1 + 2 + 3 + 4 +  

G|----------------|----------------|----------------|----------------|
D|----------------|----------------|----------------|----------------|
A|----------------|--------5---7---|----------------|----------------|
E|--5-3-5-3---0---|--0-3-5---------|--5-3-5-3---0---|--3--3--3--3--5-|
  1 + 2 + 3 + 4 +  1 + 2 + 3 + 4 +  1 + 2 + 3 + 4 +  1 + 2 + 3 + 4 +  

G|----------------||
D|----------------||
A|----------------||
E|----------------||
  1 + 2 + 3 + 4 +  





************************************

| x   Dead note
| h   Hammer-on
| p   Pull-off

************************************

            
            
Suggest correction
Creating personal tab
Creating personal tab
You can edit any tab online and save it as your Personal.

You can edit, replace or remove any tab part or add personal notes – all changes will be seen only by you.

Personal tabs can be accessed anytime from any device, even offline.
Learn more »
Give kudos to tab author, rate the tab!
1 2 3 4 5
comments
print report bad tab
guest
You may want to rate the tab now too:
select rating
Wanna post a correction for this tab? Suggest correction