Oops, an error
Loading. Please wait.

Someday chords

version 2
version 2

Whole song

Interactive

by IU
12,113 views 6 this week
no commentswrite comment
1 2 3 4 5
3 more votes to show rating
add to favorites
×
Save as Personal and add changes to this tab that will be seen only by you. Learn more ›
×
You can save this tab as Personal to edit and correct it or add notes. All changes will be seen only by you. Learn more »
launch autoscroll
font size
0
reset
transpose
0
reset
simplify chords
display chords
guitar tuner
edit
Autoscroll
slow
fast
+/-
esc
set tempo
stop
Strumming
There is no strumming pattern for this song yet. and get +5 IQ
***NOTE*** This is in a different key from the original! It's the version that I played 
in MY video. 

http://youtu.be/lg_38N8xR6w

If you want the original key, put a capo on the 5th fret!

VERSE/CHORUS
  Amaj7  G#m7b5 C#m7 F#m7   Em7 A7
e|--0----|--x--x--|--x----|--3--0--|
B|--0----|--3--9--|--2----|--3--2--|
G|--6----|--4--9--|--2----|--4--0--|
D|--7----|--4--9--|--2----|--2--2--|
A|--7----|--x--x--|--x----|--x--0--|
E|--5----|--4--9--|--2----|--x--0--|

  Dmaj7  C#m7b5     Bm7
e|--2----|--x--x--|--x----|--0--0--|
B|--2----|--5--4--|--7----|--7--7--|
G|--2----|--4--3--|--7----|--7--7--|
D|--0----|--5--4--|--7----|--6--6--|
A|--x----|--4--3--|--x----|--7--x--|
E|--x----|--x--x--|--7----|--0--6--|


BRIDGE
   Gm6    F#7      Dm6     Amaj7
e|--x----|--0----|--x----|--0----|
B|--x----|--2----|--10---|--2----|
G|--2----|--3----|--10---|--1----|
D|--3----|--4----|--9----|--2----|
A|--3----|--x----|--x----|--0----|
E|--3----|--2----|--10---|--0----|


  F#m7    Dmadd9    A Adim  E9sus4
e|--0----|--0----|--0--2--|--2----|
B|--2----|--3----|--2--1--|--3----|
G|--2----|--2----|--2--2--|--2----|
D|--2----|--3----|--2--1--|--2----|
A|--x----|--0----|--0--0--|--2----|
E|--2----|--x----|--0--x--|--x----|

            
            
Suggest correction
Creating personal tab
Creating personal tab
You can edit any tab online and save it as your Personal.

You can edit, replace or remove any tab part or add personal notes – all changes will be seen only by you.

Personal tabs can be accessed anytime from any device, even offline.
Learn more »
Give kudos to tab author, rate the tab!
1 2 3 4 5
comments
print report bad tab
guest
You may want to rate the tab now too:
select rating
Wanna post a correction for this tab? Suggest correction