Oops, an error
Loading. Please wait.

In My Mind Tab

3,563 views 3 this week
no commentswrite comment
1 2 3 4 5
2 more votes to show rating
add to favorites
launch autoscroll
font size
0
reset
how to read this tab
guitar tuner
×
Best way to learn
"In My Mind"
Autoscroll
slow
fast
+/-
esc
set tempo
stop
Author
Difficulty
Official Website: http://ivangough.com/

Artist: Ivan Gough & Feenixpawl feat. Georgi
Song: In My Mind (Remix)
Album: Single
Tuning: Standard

Intro/Verse/ Riff 1

e |------------------------------------------|
B |------------------------------------------|
G |--8-7--5--3----5--3---8--7--5--3----5--7--|
D |------------------------------------------|
A |------------------------------------------|  
E |------------7\------------------7\--------|

In my mind
In my head
This where we all came for
The dreams we had
The love we shared
This is what we’re waiting for


Riff 2

e |-------------------------------------------------------------------|
B |-------------------------------------------------------------------|
G |-8-----8-----8----7-----7-----7----5-----5----5---5-----5------5---|
D |---8-8---8-8---8---5-5---5-5--5----5-5----5-5---5----3-3---3-3---3-|
A |-------------------------------------------------------------------| 
E |-------------------------------------------------------------------|

In my mind
In my head
This where we all came for
The dreams we had
The love we shared
This is what we’re waiting for

Riff 3

e |---------------------|
B |---------------------|
G |-8--7--5--10---------|
D |---------------------|
A |---------------------|       
E |---------------------|


Riff 4

e |-------------------------------------------------------------|
B |-------------------------------------------------------------|
G |--v5-v5----v7-v7---v8-v8----v9-v9----v10-v10-----v11-v11-----|
D |-------------------------------------------------------------|
A |-------------------------------------------------------------|       
E |--------7\------7\-------10\------10\-------12\---------12\--|


e |------------------------------|
B |------------------------------|
G |-v12--v12-----v14--v15--------|
D |------------------------------|
A |------------------------------|      
E |----------12\-----------10\---|


Outro Riff 1


e |------------------------------------------|
B |------------------------------------------|
G |--8-7--5--3----5--3---8--7--5--3----5--7--|
D |------------------------------------------|
A |------------------------------------------|  
E |------------7\------------------7\--------|

In my mind
In my head
This where we all came for
The dreams we had
The love we shared
This is what we’re waiting for
Suggest correction
Give kudos to tab author, rate the tab!
1 2 3 4 5
comments
print report bad tab
guest
You may want to rate the tab now too:
select rating
Wanna post a correction for this tab? Suggest correction