Oops, an error
Loading. Please wait.

Come Ack Down Tab

1,834 views 1 this week
no commentswrite comment
1 2 3 4 5
please rate
add to favorites
launch autoscroll
font size
0
reset
how to read this tab
guitar tuner
Autoscroll
slow
fast
+/-
esc
set tempo
stop
Help us to improve Ultimate-Guitar.com Take our survey!
×
Author
Difficulty
novice
-------------------------------------------------------------------------------
                             Come Back Down - Ivory
-------------------------------------------------------------------------------
Tabbed by: ICECOLD30001
Email: srt4rulez@hotmail.com

Tuning: Standard (EADGBe)


This is about the whole song on guitar: (+ rhythm)

      C#/Db     A     E     B
e|---------------------------------|
B|---------------------------------|
G|------6-------------9------------|
D|------6-------7-----9-----9------|
A|------4-------7-----7-----9------|
E|--------------5-----------7------|

| /  slide up
| \  slide down
| h  hammer-on
| p  pull-off
| ~  vibrato
| +  harmonic
| x  Mute note
==========================================================================
Suggest correction
Give kudos to tab author, rate the tab!
1 2 3 4 5
comments
print report bad tab
guest
You may want to rate the tab now too:
select rating
Please do not post tabs as comments. Select "correction" instead!