Oops, an error
Loading. Please wait.

All You Ever Hear bass

version 1
version 1

Whole song

Interactive

41 views 1 this week
no commentswrite comment
1 2 3 4 5
3 more votes to show rating
add to favorites
×
Save as Personal and add changes to this tab that will be seen only by you. Learn more ›
×
You can save this tab as Personal to edit and correct it or add notes. All changes will be seen only by you. Learn more »
launch autoscroll
font size
0
reset
guitar tuner
edit
Autoscroll
slow
fast
+/-
esc
set tempo
stop
Exported Off GP
Title: All You Ever Hear
Artist: Ivoryline
Album: There Came A Lion
Words: Ivoryline
Music: Ivoryline
Copyright: Ivoryline
Tempo = 150
Shane (Bass)

Legend
L - tied note
x - dead note
h - hammer on/pull off
b - bend
s - slide
~ - vibrato
g - ghost note
> - accentuated note
t - trill
M - palm mute
. - staccato
P - popping (bass)
S - slapping (bass)
+ - tapping
W - wide vibrato
< - fade in
w - whammy bar
= - tremolo picking
v - brush up
^ - brush down
V - pick stroke up
n - pick stroke down


F#|----------------------------|----------------------------|
C#|----------------------------|----------------------------|
G#|----------------------------|--------------------5--5----|
C#|--7--7--7--7--9--9--9--0----|--0--0--0--5--5--5----------|


----------------------------|----------------------------|
----------------------------|----------------------------|
--5--5--5-------------------|----------------------------|
-----------9--9--9--9--5----|--5--5--5--7--7--7--7--7----|


----------------------------|----------------------------|
----------------------------|----------------------------|
----------------------------|--------5--5--5--5--5-------|
--9--9--9--0--0--0--0--5----|--5--5-----------------9----|


----------------------------|----------------------------|
----------------------------|----------------------------|
----------------------------|----------------------------|
--9--9--9--5--5--5--5--7----|--7--7--7--7--7--7--7--7----|


----------------------------|
----------------------------|
-----------------x--x--x----|
--9--9--7s-9--9-------------|


----------------------------------------------------|
----------------------------------------------------|
--x-----x-----x-------------------------------------|
--------------------9-----9-----x--x--7s----9-------|


----------------------------|----------------------------|
----------------------------|----------------------------|
-----x--x--x--x-------------|-----------------x--x--x----|
--9--------------5--5--5----|--9--9--7--9--9-------------|


----------------------------------------------------|
----------------------------------------------------|
--x-----x-----x-------------------------------------|
--------------------9-----9-----x--x--7-----9-------|


----------------------------|----------------------------|
----------------------------|----------------------------|
-----x--x--x--x--5--5--5----|-----------------x--x--x----|
--9-------------------------|--9--9--7s-9--9-------------|


----------------------------------------------------|
----------------------------------------------------|
--x-----x-----x-------------------------------------|
--------------------9-----9-----x--x--7s----9-------|


----------------------------|----------------------------|
----------------------------|----------------------------|
-----x--x--x--x-------------|-----------------x--x--x----|
--9--------------5--5--5----|--9--9--7--9--9-------------|


----------------------------------------------------|
----------------------------------------------------|
--x-----x-----x-------------------------------------|
--------------------9-----9-----x--x--7-----9-------|


----------------------------|----------------------------|
----------------------------|----------------------------|
--5--5--5--5--5--4--4--4----|--4--4--4--4s-5--5--5--5----|
----------------------------|----------------------------|


----------------------------|----------------------------|
----------------------------|----------------------------|
--5--9--9--7--7--5--5--4----|--4--5--5--5--5--5--4--4----|
----------------------------|----------------------------|


----------------------------|----------------------------------|
----------------------------|----------------------------------|
--4--4--4--4--4s-5--5--5----|--5--5----------------------------|
----------------------------|----------------------------------|


----------------------------|----------------------------|
----------------------------|----------------------------|
--5--5--5--5--5--4--4--4----|--4--4--4--4s-5--5--5--5----|
----------------------------|----------------------------|


----------------------------|----------------------------|
----------------------------|----------------------------|
--5--9--7--7--5--5--4--4----|--5--5--5--5--5--4--4--4----|
----------------------------|----------------------------|


----------------------------|----------------------------|
----------------------------|----------------------------|
--4--4--4--4s-5--5--5--5----|--5--5--5--5--5--5--5--5----|
----------------------------|----------------------------|


----------------------------|----------------------------|
----------------------------|----------------------------|
--5--5--5--5s-7--7--7--7s---|--4--4--4--4s-9--9--9--9----|
----------------------------|----------------------------|


----------------------------------------|----------------------------|
----------------------------------------|----------------------------|
--9--9--9--9--9--9--7--7--5--5--4--4----|--5--5--5--5s-7--7--7--7s---|
----------------------------------------|----------------------------|


----------------------------|----------------------------------------|
----------------------------|----------------------------------------|
--4--4--4--4s-5--5--5--5----|--5--5--5--5--5--5--5--5--5--5--5--5----|
----------------------------|----------------------------------------|


----------------------------|
----------------------------|
-----------------x--x--x----|
--9--9--7s-9--9-------------|


----------------------------------------------------|
----------------------------------------------------|
--x-----x-----x-------------------------------------|
--------------------9-----9-----x--x--7s----9-------|


----------------------------|----------------------------|
----------------------------|----------------------------|
-----x--x--x--x-------------|-----------------x--x--x----|
--9-------------------------|--9--9--7s-9--9-------------|


----------------------------------------------------|
----------------------------------------------------|
--x-----x-----x-------------------------------------|
--------------------9-----9-----x--x--7s----9-------|


----------------------------|----------------------------|
----------------------------|----------------------------|
-----x--x--x--x--5--5--5----|-----------------x--x--x----|
--9-------------------------|--9--9--7s-9--9-------------|


----------------------------------------------------|
----------------------------------------------------|
--x-----x-----x-------------------------------------|
--------------------9-----9-----x--x--7s----9-------|


----------------------------|----------------------------|
----------------------------|----------------------------|
-----x--x--x--x-------------|-----------------x--x--x----|
--9--------------5--5--5----|--9--9--7s-9--9-------------|


----------------------------------------------------|
----------------------------------------------------|
--x-----x-----x-------------------------------------|
--------------------9-----9-----x--x--7s----9-------|


----------------------------|----------------------------|
----------------------------|----------------------------|
-----x--x--x--x--5--5--5----|--5--5--5--5--5--5--5--5----|
--9-------------------------|----------------------------|


----------------------------|----------------------------|
----------------------------|----------------------------|
----------------------------|--5--5--5--5--5--4--4--4----|
--5--5--5--5--5--5--5--5----|----------------------------|


----------------------------|----------------------------|
----------------------------|----------------------------|
--4--4--4--4s-5--5--5--5----|--5--9--9--7--7--5--5--4----|
----------------------------|----------------------------|


----------------------------|----------------------------|
----------------------------|----------------------------|
--4--5--5--5--5--5--4--4----|----------------------------|
----------------------------|--9M-9M-9M-9M-9M-9M-9M-9M---|


----------------------------|----------------------------|
----------------------------|----------------------------|
----------------------------|--5--5--5--5--5--4--4--4----|
--9M-9M-9M-9M-9--9--9--9----|----------------------------|


----------------------------|----------------------------|
----------------------------|----------------------------|
--4--4--4--4s-5--5--5--5----|--5--9--7--7--5--5--4--4----|
----------------------------|----------------------------|


----------------------------|----------------------------|
----------------------------|----------------------------|
--5--5--5--5--5--4--4--4----|--4--4--4--4s-5--5--5--5----|
----------------------------|----------------------------|


----------------------------|----------------------------|
----------------------------|----------------------------|
--5--5--5--5--5--5--5--5----|--5--5--5--5s-7--7--7--7s---|
----------------------------|----------------------------|


----------------------------|----------------------------|
----------------------------|----------------------------|
--4--4--4--4----------------|----------------------------|
--------------9M-9--9--9----|--9M-9--9--9--9M-9--9--9----|


----------------------------|----------------------------|-------|
----------------------------|----------------------------|-------|
--5--5--5--5s-7--7--7--7s---|--4--4--4--4----------------|-------|
----------------------------|--------------11M12L12L12M--|--9----|


----------------------------|----------------------------|
----------------------------|----------------------------|
--7--7--7--7--7--9--9--9----|--9--9--9--5--5--5--5--5----|
----------------------------|----------------------------|


----------------------------|----------------------------|
----------------------------|----------------------------|
--4--4--4--4--5-------------|--4--4--4--4--5-------------|
----------------------------|----------------------------|


----------------------------|----------------------------|
----------------------------|----------------------------|
--10s---------4--4--4--4----|--5--5--5--5--5--5--5--5----|
----------------------------|----------------------------|


----------------------------||--------------------------------------||
----------------------------||o------------------------------------o||
--4--4--4--4--4--4--4--4----||o5--5--5--5--5--5--4--4--4--4--4--4--o||
----------------------------||--------------------------------------||


----------------------------|----------------------------||
----------------------------|----------------------------||
--5--5--5--5--5--5--5--5----|--4--4--4--4--4--4--4--4----||
----------------------------|----------------------------||


--------------------------------------||-------|-------|-------------------|
o------------------------------------o||-------|-------|-------------------|
o5--5--5--5--5--5--4--4--4--4--4--4--o||-------|-------|-------------------|
--------------------------------------||--5L---|--5L---|--5L-5L-5L-5L-5----|


----------------------------|----------------------------|
----------------------------|----------------------------|
--5--5--5--5--5--4--4--4----|--4--4--4--4s-5--5--5--5----|
----------------------------|----------------------------|


----------------------------|----------------------------|
----------------------------|----------------------------|
--5--9--7--7--5--5--4--4----|--5--5--5--5--5--4--4--4----|
----------------------------|----------------------------|


----------------------------|----------------------------|
----------------------------|----------------------------|
--4--4--4--4s-5--5--5--5----|--5--5--5--5--5--5--5--5----|
----------------------------|----------------------------|


----------------------------|----------------------------|
----------------------------|----------------------------|
--5--5--5--5s-7--7--7--7s---|--4--4--4--4s-9--9--9--9----|
----------------------------|----------------------------|


----------------------------------------|----------------------------|
----------------------------------------|----------------------------|
--9--9--9--9--9--9--7--7--5--5--4--4----|--5--5--5--5s-7--7--7--7s---|
----------------------------------------|----------------------------|


----------------------------|----------------------------------------|
----------------------------|----------------------------------------|
--4--4--4--4s-5--5--5--5----|--5--5--5--5--5--5--5--5--5--5--5--5----|
----------------------------|----------------------------------------|


----------------------------------------------------|
----------------------------------------------------|
--5M-5M-5M-5M-5M-5M-5M-5M-7M-7M-7M-7M-4M-4M-4M-4M---|
----------------------------------------------------|


----------------------------------------------------|
----------------------------------------------------|
--2M-2M-2M-2M-2M-2M-2M-2M-9M-9M-9M-9M-9M-9M-9M-9M---|
----------------------------------------------------|


----------------------------------------------------|
----------------------------------------------------|
--5M-5M-5M-5M-5M-5M-5M-5M-7M-7M-7M-7M-4M-4M-4M-4M---|
----------------------------------------------------|


----------------------------------------------------|
----------------------------------------------------|
--2M-2M-2M-2M-2M-2M-2M-2M-9M-9M-9M-9M-9M-9M-9M-9M---|
----------------------------------------------------|


----------------------------------------------------|
----------------------------------------------------|
--5M-5M-5M-5M-5M-5M-5M-5M-7M-7M-7M-7M-4M-4M-4M-4M---|
----------------------------------------------------|


----------------------------------------------------|
----------------------------------------------------|
--2M-2M-2M-2M-2M-2M-2M-2M-9M-9M-9M-9M-9M-9M-9M-9M---|
----------------------------------------------------|


----------------------------------------------------|
----------------------------------------------------|
--5M-5M-5M-5M-5M-5M-5M-5M-7M-7M-7M-7M-4M-4M-4M-4M---|
----------------------------------------------------|


----------------------------------------------------|
----------------------------------------------------|
--2M-2M-2M-2M-2M-2M-2M-2M-9M-9M-9M-9M-9M-9M-9M-9M---|
----------------------------------------------------|


----------------------------------------------------|
----------------------------------------------------|
--5M-5M-5M-5M-5M-5M-5M-5M-7M-7M-7M-7M-4M-4M-4M-4M---|
----------------------------------------------------|


----------------------------------------------------|
----------------------------------------------------|
--2M-2M-2M-2M-2M-2M-2M-2M-9M-9M-9M-9M-9M-9M-9M-9M---|
----------------------------------------------------|


----------------------------------------------------|
----------------------------------------------------|
--5M-5M-5M-5M-5M-5M-5M-5M-7M-7M-7M-7M-4M-4M-4M-4M---|
----------------------------------------------------|


----------------------------------------------------|
----------------------------------------------------|
--2M-2M-2M-2M-2M-2M-2M-2M-9M-9M-9M-9M-9M-9M-9M-9M---|
----------------------------------------------------|


----------------------------------------------------|
----------------------------------------------------|
--5M-5M-5M-5M-5M-5M-5M-5M-7M-7M-7M-7M-4M-4M-4M-4M---|
----------------------------------------------------|


----------------------------------------------------|
----------------------------------------------------|
--2M-2M-2M-2M-2M-2M-2M-2M-9M-9M-9M-9M-9M-9M-9M-9M---|
----------------------------------------------------|


----------------------------------------------------|
----------------------------------------------------|
--5M-5M-5M-5M-5M-5M-5M-5M-7M-7M-7M-7M-4M-4M-4M-4M---|
----------------------------------------------------|


----------------------------------------------------|
----------------------------------------------------|
--2M-2M-2M-2M-2M-2M-2M-2M-9M-9M-9M-9M-9M-9M-9M-9M---|
----------------------------------------------------|


----------------------------------------------------|
----------------------------------------------------|
--5M-5M-5M-5M-5M-5M-5M-5M-7M-7M-7M-7M-4M-4M-4M-4M---|
----------------------------------------------------|


----------------------------------------------------|
----------------------------------------------------|
--2M-2M-2M-2M-2M-2M-2M-2M-9M-9M-9M-9M-9M-9M-9M-9M---|
----------------------------------------------------|


----------------------------------------------------|
----------------------------------------------------|
--5M-5M-5M-5M-5M-5M-5M-5M-7M-7M-7M-7M-4M-4M-4M-4M---|
----------------------------------------------------|


----------------------------------------------------|-------||
----------------------------------------------------|-------||
--2M-2M-2M-2M-2M-2M-2M-2M-9M-9M-9M-9M-9M-9M-9M-9M---|--7----||
----------------------------------------------------|-------||
Suggest correction
Creating personal tab
Creating personal tab
You can edit any tab online and save it as your Personal.

You can edit, replace or remove any tab part or add personal notes – all changes will be seen only by you.

Personal tabs can be accessed anytime from any device, even offline.
Learn more »
Give kudos to tab author, rate the tab!
1 2 3 4 5
comments
print report bad tab
guest
You may want to rate the tab now too:
select rating
Wanna post a correction for this tab? Suggest correction