Oops, an error
Loading. Please wait.

Instincts bass

version 1
version 1

Whole song

Interactive

60 views 1 this week
1 commentread comment
1 2 3 4 5
2 more votes to show rating
add to favorites
×
Save as Personal and add changes to this tab that will be seen only by you. Learn more ›
×
You can save this tab as Personal to edit and correct it or add notes. All changes will be seen only by you. Learn more »
launch autoscroll
font size
0
reset
guitar tuner
edit
Autoscroll
slow
fast
+/-
esc
set tempo
stop
Exported Off GP
Title: Instincts
Artist: Ivoryline
Album: Vessels
Words: Ivoryline
Music: Ivoryline
Copyright: Ivoryline
Tempo = 150
Shane (Bass)

Legend
L - tied note
x - dead note
h - hammer on/pull off
b - bend
s - slide
~ - vibrato
g - ghost note
> - accentuated note
t - trill
M - palm mute
. - staccato
P - popping (bass)
S - slapping (bass)
+ - tapping
W - wide vibrato
< - fade in
w - whammy bar
= - tremolo picking
v - brush up
^ - brush down
V - pick stroke up
n - pick stroke down


G |----------------------------|----------------------------|
D |----------------------------|----------------------------|
A |----------------------------|----------------------------|
D |--5--5M----5M-5-------------|--1--1M----1M-1-------------|


----------------------------|----------------------------|
----------------------------|----------------------------|
----------------------------|----------------------------|
--10-10M---10M10-10----3----|--3M----3M-3--3--3s-5L-5----|


----------------------------|----------------------------|
----------------------------|----------------------------|
----------------------------|----------------------------|
--5--5M----5M-5-------------|--1--1M----1M-1-------------|


----------------------------|----------------------------|
----------------------------|----------------------------|
----------------------------|----------------------------|
--10-10M---10M10-10----3----|--3M----3M-3--3--3--3--3----|


----------------------------|----------------------------|
--8-----7--7-----7--7-------|--7--7-----7--------5-------|
----------------------------|----------------------------|
----------------------------|----------------------------|


----------------------------|----------------------------|
--5--5-----5--5-----3-------|----------------------------|
----------------------------|--x--x--x-----x--x--x-------|
----------------------------|----------------------------|


----------------------------|----------------------------|
--8-----7--7-----7--7-------|--7--7-----7--------5-------|
----------------------------|----------------------------|
----------------------------|----------------------------|


--------------------2L-2----|----------------------------|
--5--5-----5--5s-3----------|--8-----7--7-----7--7-------|
----------------------------|----------------------------|
----------------------------|----------------------------|


----------------------------|----------------------------|----------------|
--7--7-----7--------3-------|--3--3-----3--3-----3-------|----------------|
----------------------------|----------------------------|----------------|
----------------------------|----------------------------|----------------|


----------------------------|----------------------------|
--8-----7--7-----7--7-------|--7--7-----7--------3-------|
----------------------------|----------------------------|
----------------------------|----------------------------|


--------------------2L-2~---|----------------------------|
--3--3-----3--3s-0----------|----------------------------|
----------------------------|----------------------------|
----------------------------|--5--5--5--5--5--5--5--5----|


----------------------------|----------------------------|
----------------------------|----------------------------|
----------------------------|-----------------5M-5M-5M---|
--7--7--7--7--7--7--7--7----|--8s----1--1--1-------------|


----------------------------|----------------------------|
----------------------------|----------------------------|
--5M-5M-5M-5M-5--5--5--5----|----------------------------|
----------------------------|--5--5-----5-----1--1-------|


----------------------------|----------------------------|
----------------------------|----------------------------|
----------------------------|----------------------------|
--1-----10-10----10----3----|--5--5M----5M-5-------------|


----------------------------|----------------------------|
----------------------------|----------------------------|
----------------------------|----------------------------|
--1--1M----1M-1-------------|--10-10M---10M10------------|


----------------------------|----------------------------|
----------------------------|----------------------------|
--6--6M----6M-6-------------|----------------------------|
----------------------------|--5--5-----5-----1--1-------|


----------------------------|----------------------------|
----------------------------|----------------------------|
----------------------------|----------------------------|
--1-----10-10----10----3----|--5--5M----5M-5-------------|


----------------------------|----------------------------|
----------------------------|----------------------------|
----------------------------|----------------------------|
--1--1M----1M-1-------------|--10-10M---10M10------------|


----------------------------|-------|-------|----------------------------|
----------------------------|-------|-------|--------8L-8--7L-7L-7L-7----|
----------------------------|-------|-------|--5L-5L-5L-5L-5L-5--8L-8L---|
--7--7M----7M-7-------------|-------|-------|----------------------------|


--------8L-8--7L-7L-7L-7L-7L-7----|----------------------------|-------|
--5L-5L-5L-5L-5L-5--8L-8L-8L-8L---|--8L-8--8L-8--8L-8L-8L-8----|-------|
--8L-8L-8L-8L-8L-8L-8L-8--8L-8----|--5L-5L-5L-5L-5L-5--8L-8----|-------|
----------------------------------|----------------------------|-------|


----------------------------|--------8L-8--7L-7L-7L-7L-7L-7----|
--------8L-8--7L-7L-7L-7----|--5L-5L-5L-5L-5L-5--8L-8L-8L-8----|
--5L-5L-5L-5L-5L-5--8L-8L---|--8L-8L-8L-8L-8L-8L-8L-8--8L-8----|
----------------------------|----------------------------------|


----------------------------|----------------------------|
----------------------------|----------------------------|
----------------------------|----------------------------|
--5--5--5--5--5--5--5--5----|--7--7--7--7--7--7--7--7----|


----------------------------|----------------------------|
----------------------------|----------------------------|
-----------------5M-5M-5M---|--5M-5M-5M-5M-5--5--5--5----|
--8s----1--1--1-------------|----------------------------|


----------------------------|----------------------------|
----------------------------|----------------------------|
----------------------------|----------------------------|
--5--5-----5-----1--1-------|--1-----10-10----10----3----|


----------------------------|----------------------------|
----------------------------|----------------------------|
----------------------------|----------------------------|
--5--5M----5M-5-------------|--1--1M----1M-1-------------|


----------------------------|----------------------------|
----------------------------|----------------------------|
----------------------------|--6--6M----6M-6-------------|
--10-10M---10M10------------|----------------------------|


----------------------------|----------------------------|
----------------------------|----------------------------|
----------------------------|----------------------------|
--5--5-----5-----1--1-------|--1-----10-10----10----3----|


----------------------------|----------------------------|
----------------------------|----------------------------|
----------------------------|----------------------------|
--5--5M----5M-5-------------|--1--1M----1M-1-------------|


----------------------------|----------------------------|
----------------------------|----------------------------|
----------------------------|----------------------------|
--10-10M---10M10------------|--7--7M----7M-7-------------|


----------------------------------------------------|
----------------------------------------------------|
----------------------------------------------------|
--5--5--5-----5--5--5-----5--5--5-----5--5--5-------|


----------------------------------------------------|
----------------------------------------------------|
----------------------------------------------------|
--5--5--5-----5--5--5-----5--5--5-----5--5--5-------|


----------------------------|----------------------------|
----------------------------|----------------------------|
--6-----------6--6--6-------|----------------------------|
----------------------------|--5--5--5--5--5--5--5--5----|


----------------------------|----------------------------|
----------------------------|----------------------------|
----------------------------|----------------------------|
--4--4--4--4--4--4--4--4----|--10-10-10-10-10-10-10-10---|


----------------------------|----------------------------|
----------------------------|----------------------------|
--6-----------6--6--6-------|----------------------------|
----------------------------|--5--5--5--5--5--5--5--5----|


----------------------------|----------------------------|----------|
----------------------------|----------------------------|-----1----|
----------------------------|----------------------------|----------|
--4--4--4--4--4--4--4--4----|--1--1--1-----1--1--1-------|----------|


----------------------------|----------------------------|
----------------------------|----------------------------|
----------------------------|----------------------------|
--5--5--5--5--5--5--5--5----|--4--4--4--4--4--4--4--4----|


----------------------------|-------|----------|----------|----------|
----------------------------|-------|----------|----------|----------|
----------------------------|--6----|----------|--5-------|----------|
--10-10-10-10-10-10-10-10---|-------|--8--5----|-----7----|--8--5----|


----------------------------|----------------------------|
----------------------------|----------------------------|
--x--x----------------------|----------------------------|
--------1--1--1--1--1--1----|--5--5-----5-----1--1-------|


----------------------------|----------------------------|
----------------------------|----------------------------|
----------------------------|----------------------------|
--1-----10-10----10----3----|--5--5M----5M-5-------------|


----------------------------|----------------------------|
----------------------------|----------------------------|
----------------------------|----------------------------|
--1--1M----1M-1-------------|--10-10M---10M10------------|


----------------------------|----------------------------|
----------------------------|----------------------------|
--6--6M----6M-6-------------|----------------------------|
----------------------------|--5--5-----5-----1--1-------|


----------------------------|----------------------------|
----------------------------|----------------------------|
----------------------------|----------------------------|
--1-----10-10----10----3----|--5--5M----5M-5-------------|


----------------------------|----------------------------|
----------------------------|----------------------------|
----------------------------|----------------------------|
--1--1M----1M-1-------------|--10-10M---10M10------------|


----------------------------|----------------------------|
----------------------------|----------------------------|
----------------------------|----------------------------|
--7--7M----7M-7-------------|--5--5--5--5--5--5--5--5----|


----------------------------|----------------------------|----------------|
----------------------------|----------------------------|----------------|
----------------------------|----------------------------|----------------|
--7--7--7--7--7--7--7--7----|--8s----1--1--1--1--1--1----|--10-10-10-10---|


----------------------------|----------------------------|
----------------------------|----------------------------|
----------------------------|----------------------------|
--5--5--5--5--5--5--5--5----|--7--7--7--7--7--7--7--7----|


----------------------------|----------|----||
----------------------------|----------|----||
----------------------------|----------|----||
--8s----1--1--1--1--1--1----|--10-0----|----||
Suggest correction
Creating personal tab
Creating personal tab
You can edit any tab online and save it as your Personal.

You can edit, replace or remove any tab part or add personal notes – all changes will be seen only by you.

Personal tabs can be accessed anytime from any device, even offline.
Learn more »
Give kudos to tab author, rate the tab!
1 2 3 4 5
comments
print report bad tab
1 comment total.
0 reply
isaiahmccoy24 10 Oct 15, 2014 01:25 AM

Lack of accuracy. i felt kind of lost with the placement of the chorus and verses and stuff like that i think it is pretty accurate

guest
You may want to rate the tab now too:
select rating
Wanna post a correction for this tab? Suggest correction