Oops, an error
Loading. Please wait.

Worry About You tab

version 3
version 3

Whole song

by Ivy
2,295 views 1 this week
2 commentsread comments
1 2 3 4 5
2 more votes to show rating
add to favorites
×
Save as Personal and add changes to this tab that will be seen only by you. Learn more ›
×
You can save this tab as Personal to edit and correct it or add notes. All changes will be seen only by you. Learn more »
launch autoscroll
font size
0
reset
how to read this tab
guitar tuner
edit
Autoscroll
slow
fast
+/-
esc
set tempo
stop
Author
Difficulty
|------------------|  INTRO
|------------------|
|-----8-------7----|
|---6--------------|
|-8---------8------|
|---------6--------|



|--------------------------------------------|  CHORUS 
|--------------------------------------------|
|----8---------------------------------------|
|-10---10----------10---------------------10-|
|---------------13--------10-11--------13----|
|---------11-10--------11--------11-10-------|


|-------------|  GUITAR 2
|-------------|
|-8-10-11-----|
|-6--8-10-----|
|-------------|
|-------------|

            
            
Suggest correction
Creating personal tab
Creating personal tab
You can edit any tab online and save it as your Personal.

You can edit, replace or remove any tab part or add personal notes – all changes will be seen only by you.

Personal tabs can be accessed anytime from any device, even offline.
Learn more »
Give kudos to tab author, rate the tab!
1 2 3 4 5
comments
print report bad tab
2 comments total.
0 reply
marylinmanson 10 Jun 14, 2007 03:38 PM

Hey khris i got an account! I like the tab, sounds good. ttyl

0 reply
bing_182 82 Sep 09, 2008 06:43 PM

Awsome tab although i think this sounds better, i still gave it 5star as you did a great job!!
With guitar 2, rather than it being 10/11, i think 10-12 sounds better =)
|-------------| GUITAR 2
|-------------|
|-8-10-11-----|
|-6--8-10-----|
|-------------|
|-------------|

|-------------| GUITAR 2
|-------------|
|-8-10-12-----|
|-6--8-10-----|
|-------------|
|-------------|

guest
You may want to rate the tab now too:
select rating
Wanna post a correction for this tab? Suggest correction