Oops, an error
Loading. Please wait.

Addicted Tab

1,276 views 1 this week
no commentswrite comment
1 2 3 4 5
x 3
add to favorites
launch autoscroll
font size
0
reset
how to read this tab
guitar tuner
Autoscroll
slow
fast
+/-
esc
set tempo
stop
Help us to improve Ultimate-Guitar.com Take our survey!
×
-----------------------------------------------------------------------------
                             Addicted - Ivy Lies
-----------------------------------------------------------------------------
       
Tuning: Standard
 
Intro 
e|----------------------------------------------9-------------|
B|-------10-----------10-----------10-------------------------|
G|----11----11-----11----11-----11----11-----11---------------| x4
D|-9------------9------------9------------9-------------------|
A|------------------------------------------------------------|
E|------------------------------------------------------------|
   *  *         *  *         *  *         *  *

Verse 
e|-------------------------------------------|
B|-------------------------------------------|
G|---------9-9-9-9-11-11-11-11-11-11-11-11---| x4
D|-9-9-9-9-9-9-9-9-11-11-11-11-11-11-11-11---|
A|-9-9-9-9-7-7-7-7-9--9--9--9--9--9--9--9----|
E|-7-7-7-7-----------------------------------|

     Chorus
e|----------------------------------------------------|
B|----------------------------------------------------|
G|-----------------------------------7777777777777777-|
D|-9999999999999999-5555555555555555-7777777777777777-|----
A|-9999999999999999-5555555555555555-5555555555555555-|     \
E|-7777777777777777-3333333333333333------------------|      \
                                                             X2
e|----------------------------------------------------|      /
B|----------------------------------------------------|     /
G|-11111111111111111111111111111111-------------------|----
D|-11111111111111111111111111111111-------------------|
A|-9-9-9-9-9-9-9-9-9-9-9-9-9-9-9-9--------------------|
E|----------------------------------------------------|

         Then riff...

--Repeat verse and chorus--

Bridge - Do riff

--Repeat chorus--

Outro
e|------------------------------------------------------|
B|------------------------------------------------------|
G|------------------------------------------------------|
D|--9999--9999--77--9999--9999--77--9999--9999--77--99--|
A|--9999--9999--77--9999--9999--77--9999--9999--77--99--|
E|--7777--7777--55--7777--7777--55--7777--7777--55--77--|

---------------------------------------------------------

Suggest correction
Give kudos to tab author, rate the tab!
1 2 3 4 5
comments
print report bad tab
guest
You may want to rate the tab now too:
select rating
Wanna post a correction for this tab? Suggest correction