Oops, an error
Loading. Please wait.

Never Enough Tab

222 views 1 this week
no commentswrite comment
1 2 3 4 5
1 last vote to show rating
add to favorites
launch autoscroll
font size
0
reset
how to read this tab
guitar tuner
Autoscroll
slow
fast
+/-
esc
set tempo
stop
Help us to improve Ultimate-Guitar.com Take our survey!
×
-------------------------------------------------------------------------------
                             Never Enough - Ivy Lies
-------------------------------------------------------------------------------

Tuning: Standard

[Intro]

e|-15-15-15-14-14-14-12-12-12-12-12-12-15-15-15-15---------------------------|
B|-13-13-13-13-13-13-13-13-13-13-13-13-13-13-13-13---------------------------|
G|-14-14-14-14-14-14-14-14-14-14-14-12-14-14-14-14---------------------------|
D|---------------------------------------------------------------------------|
A|---------------------------------------------------------------------------|
E|---------------------------------------------------------------------------|

e|-15-15-15-14-14-14-12-12-12-12-12-12-12-12-12-12---------------------------|
B|-13-13-13-13-13-13-13-13-13-13-13-13-13-13-13-13---------------------------|
G|-14-14-14-14-14-14-14-14-14-14-14-12-14-14-14-14---------------------------|
D|---------------------------------------------------------------------------|
A|---------------------------------------------------------------------------|
E|---------------------------------------------------------------------------|

[Verse 1]

“When you break and you look for me...”

e|-15-15-15-14-14-14-12-12-12-12-12-12-15-15-15-15---------------------------|
B|-13-13-13-13-13-13-13-13-13-13-13-13-13-13-13-13---------------------------|
G|-14-14-14-14-14-14-14-14-14-14-14-12-14-14-14-14---------------------------|
D|---------------------------------------------------------------------------|
A|---------------------------------------------------------------------------|
E|---------------------------------------------------------------------------|

e|-15-15-15-14-14-14-12-12-12-12-12-12-12-12-12-12---------------------------|
B|-13-13-13-13-13-13-13-13-13-13-13-13-13-13-13-13---------------------------|
G|-14-14-14-14-14-14-14-14-14-14-14-12-14-14-14-14---------------------------|
D|---------------------------------------------------------------------------|
A|---------------------------------------------------------------------------|
E|---------------------------------------------------------------------------|

“Say you need me, I don’t agree...”

e|-15-15-15-14-14-14-12-12-12-12-12-12-15-15-15-15---------------------------|
B|-13-13-13-13-13-13-13-13-13-13-13-13-13-13-13-13---------------------------|
G|-14-14-14-14-14-14-14-14-14-14-14-12-14-14-14-14---------------------------|
D|---------------------------------------------------------------------------|
A|---------------------------------------------------------------------------|
E|---------------------------------------------------------------------------|

e|-15-15-15-14-14-14-12-12-12-12-12-12-12-12-12-12---------------------------|
B|-13-13-13-13-13-13-13-13-13-13-13-13-13-13-13-13---------------------------|
G|-14-14-14-14-14-14-14-14-14-14-14-12-14-14-14-14---------------------------|
D|---------------------------------------------------------------------------|
A|---------------------------------------------------------------------------|
E|---------------------------------------------------------------------------|

“The nights we spent out...”

e|---------------------------------------------------------------------------|
B|---------------------------------------------------------------------------|
G|---------------------------10~---------------------------------------------|
D|---10~-----12~-----14~----------------5~-----------------------------------|
A|-8------10------12------8----------3---------------------------------------|
E|--------------------------------5------------------------------------------|
PM                                *  *


e|---------------------------------------------------------------------------|
B|---------------------------------------------------------------------------|
G|---------------------------------------------------------------------------|
D|---10~-----12~-----14~-----10~--------------7-7--7-7--7-7--7-7--7--7-------|
A|-8------10------12------8-------------------7-7--7-7--7-7--7-7--7--7-------|
E|--------------------------------------------5-5--5-5--5-5--5-5--5--5-------|

[Chorus] - play twice

“Now you want all of my attention...”

Gtr 1 - chords
e|---------------------------------------------------------------------------|
B|---------------------------------------------------------------------------|
G|-5555555555555555----------------------------------------------------------|
D|-5555555555555555-5555555555555555-7777777777777777-3333333333333333-------|
A|-3333333333333333-5555555555555555-7777777777777777-3333333333333333-------|
E|------------------3333333333333333-5555555555555555-1111111111111111-------|

Gtr 2 - lead riff
e|---------------------------------------------------------------------------|
B|-15-15-15-13-13-13-15-15-15-17-17-17---------------------------------------|
G|-------------------------------------16-16-16-16---------------------------| 
D|---------------------------------------------------------------------------|
A|---------------------------------------------------------------------------|
E|---------------------------------------------------------------------------|

e|---------------------------------------------------------------------------|
B|-15-15-15-13-13-13-15-15-15-17-17-17---------------------------------------|
G|-------------------------------------16-16-16-16---------------------------| 
D|---------------------------------------------------------------------------|
A|---------------------------------------------------------------------------|
E|---------------------------------------------------------------------------|

e|---------------------------------------------------------------------------|
B|----------------------------15-15-15---------------------------------------|
G|-16-16-16-14-14-14-16-16-16------------------------------------------------|
D|-------------------------------------17-17-17-17---------------------------|
A|---------------------------------------------------------------------------|
E|---------------------------------------------------------------------------|

e|---------------------------------------------------------------------------|
B|---------------------------------------------------------------------------|
G|---------------------------------------------------------------------------|
D|-17-17-17-15-15-15-14-14-14-12-12-12-15-15-15-15-15-15---------------------|
A|---------------------------------------------------------------------------|
E|---------------------------------------------------------------------------|

[Refrain]

“It’s never enough, never enough, no good...”

e|---------------------------------------------------------------------------|
B|---------------------------------------------------------------------------|
G|---------------------------------------------------------------------------|
D|-3-3-3-3--5-5-5-5--7--7--3-3-3-3--3-3-3-3--5-5-----------------------------|
A|-3-3-3-3--5-5-5-5--7--7--3-3-3-3--3-3-3-3--5-5-----------------------------|
E|-1-1-1-1--3-3-3-3--5--5--1-1-1-1--1-1-1-1--3-3-----------------------------|

e|-15-15-15-14-14-14-12-12-12-12-12-12-15-15-15-15---------------------------|
B|-13-13-13-13-13-13-13-13-13-13-13-13-13-13-13-13---------------------------|
G|-14-14-14-14-14-14-14-14-14-14-14-12-14-14-14-14---------------------------|
D|---------------------------------------------------------------------------|
A|---------------------------------------------------------------------------|
E|---------------------------------------------------------------------------|

[Verse 2]

e|-15-15-15-14-14-14-12-12-12-12-12-12-15-15-15-15---------------------------|
B|-13-13-13-13-13-13-13-13-13-13-13-13-13-13-13-13---------------------------|
G|-14-14-14-14-14-14-14-14-14-14-14-12-14-14-14-14---------------------------|
D|---------------------------------------------------------------------------|
A|---------------------------------------------------------------------------|
E|---------------------------------------------------------------------------|

e|-15-15-15-14-14-14-12-12-12-12-12-12-12-12-12-12---------------------------|
B|-13-13-13-13-13-13-13-13-13-13-13-13-13-13-13-13---------------------------|
G|-14-14-14-14-14-14-14-14-14-14-14-12-14-14-14-14---------------------------|
D|---------------------------------------------------------------------------|
A|---------------------------------------------------------------------------|
E|---------------------------------------------------------------------------|

“And now it's over, it's just a joke...”

e|-15-15-15-14-14-14-12-12-12-12-12-12-15-15-15-15---------------------------|
B|-13-13-13-13-13-13-13-13-13-13-13-13-13-13-13-13---------------------------|
G|-14-14-14-14-14-14-14-14-14-14-14-12-14-14-14-14---------------------------|
D|---------------------------------------------------------------------------|
A|---------------------------------------------------------------------------|
E|---------------------------------------------------------------------------|

e|-15-15-15-14-14-14-12-12-12-12-12-12-12-12-12-12---------------------------|
B|-13-13-13-13-13-13-13-13-13-13-13-13-13-13-13-13---------------------------|
G|-14-14-14-14-14-14-14-14-14-14-14-12-14-14-14-14---------------------------|
D|---------------------------------------------------------------------------|
A|---------------------------------------------------------------------------|
E|---------------------------------------------------------------------------|

“The nights we spent out...”

e|---------------------------------------------------------------------------|
B|---------------------------------------------------------------------------|
G|---------------------------10~---------------------------------------------|
D|---10~-----12~-----14~----------------5~-----------------------------------|
A|-8------10------12------8----------3---------------------------------------|
E|--------------------------------5------------------------------------------|
PM                                *  *

e|---------------------------------------------------------------------------|
B|---------------------------------------------------------------------------|
G|---------------------------------------------------------------------------|
D|---10~-----12~-----14~-----10~--------------7-7--7-7--7-7--7-7--7--7-------|
A|-8------10------12------8-------------------7-7--7-7--7-7--7-7--7--7-------|
E|--------------------------------------------5-5--5-5--5-5--5-5--5--5-------|

[Chorus] - play twice

“Now you want all of my attention...”

Gtr 1 - chords
e|---------------------------------------------------------------------------|
B|---------------------------------------------------------------------------|
G|-5555555555555555----------------------------------------------------------|
D|-5555555555555555-5555555555555555-7777777777777777-3333333333333333-------|
A|-3333333333333333-5555555555555555-7777777777777777-3333333333333333-------|
E|------------------3333333333333333-5555555555555555-1111111111111111-------|

Gtr 2 - lead riff
e|---------------------------------------------------------------------------|
B|-15-15-15-13-13-13-15-15-15-17-17-17---------------------------------------|
G|-------------------------------------16-16-16-16---------------------------| 
D|---------------------------------------------------------------------------|
A|---------------------------------------------------------------------------|
E|---------------------------------------------------------------------------|

e|---------------------------------------------------------------------------|
B|-15-15-15-13-13-13-15-15-15-17-17-17---------------------------------------|
G|-------------------------------------16-16-16-16---------------------------| 
D|---------------------------------------------------------------------------|
A|---------------------------------------------------------------------------|
E|---------------------------------------------------------------------------|

e|---------------------------------------------------------------------------|
B|----------------------------15-15-15---------------------------------------|
G|-16-16-16-14-14-14-16-16-16------------------------------------------------|
D|-------------------------------------17-17-17-17---------------------------|
A|---------------------------------------------------------------------------|
E|---------------------------------------------------------------------------|

e|---------------------------------------------------------------------------|
B|---------------------------------------------------------------------------|
G|---------------------------------------------------------------------------|
D|-17-17-17-15-15-15-14-14-14-12-12-12-15-15-15-15-15-15---------------------|
A|---------------------------------------------------------------------------|
E|---------------------------------------------------------------------------|

[Refrain]

“It’s never enough, never enough, no good...”

e|---------------------------------------------------------------------------|
B|---------------------------------------------------------------------------|
G|---------------------------------------------------------------------------|
D|-3-3-3-3--5-5-5-5--7--7--3-3-3-3--3-3-3-3--5-5-----------------------------|
A|-3-3-3-3--5-5-5-5--7--7--3-3-3-3--3-3-3-3--5-5-----------------------------|
E|-1-1-1-1--3-3-3-3--5--5--1-1-1-1--1-1-1-1--3-3-----------------------------|

[Bridge]

e|-5~--------7~---5~--------7~---5~------------12~---------------------------|
B|-6~---6~---8~---6~---6~---8~---6~--------12--------------------------------|
G|-7~---7~---9~---7~---7~---9~---7~----12------------------------------------|
D|------5~-------------5~----------------------------------------------------|
A|---------------------------------------------------------------------------|
E|---------------------------------------------------------------------------|

[Chorus] - play twice

“Now you want all of my attention...”

Gtr 1 - chords
e|---------------------------------------------------------------------------|
B|---------------------------------------------------------------------------|
G|-5555555555555555----------------------------------------------------------|
D|-5555555555555555-5555555555555555-7777777777777777-3333333333333333-------|
A|-3333333333333333-5555555555555555-7777777777777777-3333333333333333-------|
E|------------------3333333333333333-5555555555555555-1111111111111111-------|

Gtr 2 - lead riff
e|---------------------------------------------------------------------------|
B|-15-15-15-13-13-13-15-15-15-17-17-17---------------------------------------|
G|-------------------------------------16-16-16-16---------------------------| 
D|---------------------------------------------------------------------------|
A|---------------------------------------------------------------------------|
E|---------------------------------------------------------------------------|

e|---------------------------------------------------------------------------|
B|-15-15-15-13-13-13-15-15-15-17-17-17---------------------------------------|
G|-------------------------------------16-16-16-16---------------------------| 
D|---------------------------------------------------------------------------|
A|---------------------------------------------------------------------------|
E|---------------------------------------------------------------------------|

e|---------------------------------------------------------------------------|
B|----------------------------15-15-15---------------------------------------|
G|-16-16-16-14-14-14-16-16-16------------------------------------------------|
D|-------------------------------------17-17-17-17---------------------------|
A|---------------------------------------------------------------------------|
E|---------------------------------------------------------------------------|

e|---------------------------------------------------------------------------|
B|---------------------------------------------------------------------------|
G|---------------------------------------------------------------------------|
D|-17-17-17-15-15-15-14-14-14-12-12-12-15-15-15-15-15-15---------------------|
A|---------------------------------------------------------------------------|
E|---------------------------------------------------------------------------|

[Outro]

“It’s never enough, never enough, no good...”

e|---------------------------------------------------------------------------|
B|---------------------------------------------------------------------------|
G|---------------------------------------------------------------------------|
D|-3-3-3-3--5-5-5-5--7--7--3-3-3-3--5-5-5-5----------------------------------|
A|-3-3-3-3--5-5-5-5--7--7--3-3-3-3--5-5-5-5----------------------------------|
E|-1-1-1-1--3-3-3-3--5--5--1-1-1-1--3-3-3-3----------------------------------|

[End]



Suggest correction
Give kudos to tab author, rate the tab!
1 2 3 4 5
comments
print report bad tab
guest
You may want to rate the tab now too:
select rating
Wanna post a correction for this tab? Suggest correction