Oops, an error
Loading. Please wait.

Happy Again chords

version 3
version 3

Whole song

365 views 1 this week
no commentswrite comment
1 2 3 4 5
1 last vote to show rating
add to favorites
×
Save as Personal and add changes to this tab that will be seen only by you. Learn more ›
×
You can save this tab as Personal to edit and correct it or add notes. All changes will be seen only by you. Learn more »
launch autoscroll
font size
0
reset
transpose
0
reset
display chords
guitar tuner
edit
Autoscroll
slow
fast
+/-
esc
set tempo
stop
Author
Difficulty
Strumming
There is no strumming pattern for this song yet. and get +5 IQ
Intro: x1

e|-1---5---4---7----x-5-----x---9h10-p9--7---5-m-7---x-5-------|
B|-3---4---3---5----x-5-----x---8--------8---5-m-7---x-7-------|
G|-2---5---4---6----x-6-----x---7--------7---6-m-6---x-6-------|
D|-------------------------------------------------------------|
A|-------------------------------------------------------------|
E|-------------------------------------------------------------|

Verse:

  She bru-shes with tears     Paints on  her clothes paves new spheres
e|-1---5---4----7-----5----x----9---h10--p9---7-------5-----7----5-------|
B|-3---4---3----5-----5----x----8-------------8-------5-----7----7-------|
G|-2---5---4----6-----6----x----7-------------7-------6-----6----6-------|
D|-----------------------------------------------------------------------|
A|-----------------------------------------------------------------------|
E|-----------------------------------------------------------------------|

   O-pens the cur  -tain      topp   -  ling lost    in    the  mud
e|-1---5---4----7-----5----x----9---h10--p9---7-------5-----7----5-------|
B|-3---4---3----5-----5----x----8-------------8-------5-----7----7-------|
G|-2---5---4----6-----6----x----7-------------7-------6-----6----6-------|
D|-----------------------------------------------------------------------|
A|-----------------------------------------------------------------------|
E|-----------------------------------------------------------------------|

Chorus:

         C#m
Oh she's happy again
                           D
Cause all she sees is your own level head,
                            E
And all she breathes is the air that you shared
                  F#m
Lyin' free in the place of your bed


Verse:

  She paints a   pic - ture,   a  can-vas  of  gli  - ding   au - ra
e|-1---5-----4----7-----5----x----9---h10--p9---7-------5-----7----5-------|
B|-3---4-----3----5-----5----x----8-------------8-------5-----7----7-------|
G|-2---5-----4----6-----6----x----7-------------7-------6-----6----6-------|
D|-------------------------------------------------------------------------|
A|-------------------------------------------------------------------------|
E|-------------------------------------------------------------------------|

  The lights are cla - shing She saw  that my heart    is    rac - ing
e|-1---5-----4----7-----5----x----9---h10--p9---7-------5-----7----5-------|
B|-3---4-----3----5-----5----x----8-------------8-------5-----7----7-------|
G|-2---5-----4----6-----6----x----7-------------7-------6-----6----6-------|
D|-------------------------------------------------------------------------|
A|-------------------------------------------------------------------------|
E|-------------------------------------------------------------------------|

Chorus:

         C#m
Oh she's happy again
                           D
Cause all she sees is your own level head,
                            E
And all she breathes is the air that you shared
                  F#m
Lyin' free in the place of your bed

G#m A           F#m
     Wait for me,
              E
Wait till the morning,
         F#m
We'll be fine
            A         F#m           
Wait for me, wait for me,
              E
Wait till the morning,
          F#m  E  F#m
We'll be fine

          C#m
But is she happy again
                           D
When all she sees is your own level head,
                            E
And all she breathes is the air that you shared
                  F#m                  
Lyin' free in the place of your bed


C#m/ Bm /// C#m/ D ///  C#m/ Bm ///  C#m/ E ///
(1)   (4)   (1)   (4)   (1)   (4)    (1)   (4)

 
 I'll meet  her   la - ter  When charring cross calls   com - po - sure
e|-1---5-----4----7-----5----x----9---h10--p9----7-------5-----7----5-------|
B|-3---4-----3----5-----5----x----8--------------8-------5-----7----7-------|
G|-2---5-----4----6-----6----x----7--------------7-------6-----6----6-------|
D|--------------------------------------------------------------------------|
A|--------------------------------------------------------------------------|
E|--------------------------------------------------------------------------|


  Two twis - ted lo  - vers      One will look back,   one   ne - ver
e|-1---5-----4----7-----5----x----9---h10--p9---7-------5-----7----5-------|
B|-3---4-----3----5-----5----x----8-------------8-------5-----7----7-------|
G|-2---5-----4----6-----6----x----7-------------7-------6-----6----6-------|
D|-------------------------------------------------------------------------|
A|-------------------------------------------------------------------------|
E|-------------------------------------------------------------------------|


         C#m
Oh she's happy again
                              D
Cause all she breathes is the air that is free,
                          E
And all she sees are that shapes that she feels,
                   F#m
Lyin' free with no thought of you and me


G#m A           F#m
     Wait for me,
              E
Wait till the morning,
         F#m
We'll be fine
            A         F#m           
Wait for me, wait for me,
              E
Wait till the morning,
          F#m  E  F#m  E
We'll be fine

Outro:

e|-1---5-----4----7-----5----x----9---h10--p9---7-------5-----7----5-------|
B|-3---4-----3----5-----5----x----8-------------8-------5-----7----7-------|
G|-2---5-----4----6-----6----x----7-------------7-------6-----6----6-------|
D|-------------------------------------------------------------------------|
A|-------------------------------------------------------------------------|
E|-------------------------------------------------------------------------|

 




            
            
Suggest correction
Creating personal tab
Creating personal tab
You can edit any tab online and save it as your Personal.

You can edit, replace or remove any tab part or add personal notes – all changes will be seen only by you.

Personal tabs can be accessed anytime from any device, even offline.
Learn more »
Give kudos to tab author, rate the tab!
1 2 3 4 5
comments
print report bad tab
guest
You may want to rate the tab now too:
select rating
Wanna post a correction for this tab? Suggest correction