Oops, an error
Loading. Please wait.

Danger In The Manger Tab

version 2
version 2

Intro

Interactive

549 views 1 this week
no commentswrite comment
1 2 3 4 5
3 more votes to show rating
add to favorites
launch autoscroll
font size
0
reset
how to read this tab
guitar tuner
Autoscroll
slow
fast
+/-
esc
set tempo
stop
Help us to improve Ultimate-Guitar.com Take our survey!
×

E|-----------------------------|
B|-----------------------------|
G|-------4---4----4----4----4--|
D|---2-5--2-5--2-5--2-5--2-5-5-|
A|-----------------------------|
E|-----------------------------|

E|-----------------------------|
B|-----------------------------|
G|-----------------------------|
D|------4----4----4----4----4--|
A|---2-5--2-5--2-5--2-5--2-5-5-|
E|-----------------------------|

E|------7----7----7----7----7--|
B|---5-8--5-8--5-8--5-8--5-8-8-|
G|-----------------------------|
D|-----------------------------|
A|-----------------------------|
E|-----------------------------|

E|-----------------------------|
B|------7----7----7----7----7--|
G|---4-7--4-7--4-7--4-7--4-7-7-|
D|-----------------------------|
A|-----------------------------|
E|-----------------------------|


There u go
Find me at ieguarino@bell.net
Suggest correction
Give kudos to tab author, rate the tab!
1 2 3 4 5
comments
print report bad tab
guest
You may want to rate the tab now too:
select rating
Wanna post a correction for this tab? Suggest correction