Oops, an error
Loading. Please wait.

You Aint No Family Tab

version 1
version 1

Whole song

Interactive

9,485 views 1 this week
4 commentsread comments
1 2 3 4 5
x 4
add to favorites
launch autoscroll
font size
0
reset
how to read this tab
guitar tuner
Autoscroll
slow
fast
+/-
esc
set tempo
stop
Help us to improve Ultimate-Guitar.com Take our survey!
×
hey this is my version of you aint no family

its such a awesome song to play ive already tabbed it but i sussed out both guitar parts :)
im not 100% but it good enough plz rate and all comments are welcome nd plz rate

its tuned to drop B


here goes
intro

guitar 1
|------------------|-------------------------------------------------|
|------------------|----14-17--14-17--13-16--13-16--14-17--14-17-----|
|------------------|--15-----15-----14-----14-----15-----15----------|
|------------------|-------------------------------------------------|
|-5----4----5----4-|--------------------------------------------5--4-|
|--0000-0000-0000--|---------------------------------------------00--|

|----------------------------------------------------------|
|---10-13--10-13--9-12--9-12--10-13--10-13--------11-13-15-|
|-11-----11-----10----10----11-----11-----10-11-13---------|
|----------------------------------------------------------|
|----------------------------------------------------------|
|----------------------------------------------------------|

guitar 2
|------------------|-------------------------------------------------|
|------------------|----11-14--11-14--10-13--10-13--11-14--11-14-----|
|------------------|--12-----12-----11-----11-----12-----12----------|
|------------------|-------------------------------------------------|
|-5----4----5----4-|--------------------------------------------5--4-|
|--0000-0000-0000--|---------------------------------------------00--|

|-------------------------------------------------------------|
|---11-14--11-14--10-13--10-13--11-14--11-14---------11-13-15-|
|-12-----12-----11-----11-----12-----12------10-11-13---------|
|-------------------------------------------------------------|
|-------------------------------------------------------------|
|-------------------------------------------------------------|

guitar 1
|----------------------------------------------|
|--15--18--10-8--13----------------------------|
|---x---x--x--x--x-----------------------------|
|--12--15--7--5--10----------------------------|
|----------------------------------------------|
|----------------------------------------------|
guitar 2 
plays open b u will have to sus out the rythem.

then he plays
|--------------------------------------------------|
|--------------------------------------------------|
|--------------------------------------------------|
|--------------------------------------------------|
|--------------------------------------------------|
|-000000000000333333333333888888888888555555555555-|

tapping that i havent worked out yet but will do

both guitar
|----------------------------------------------|
|----------------------------------------------|
|----------------------------------------------|
|----------------------------------------------|x2
|--0-0000-0-0-0-----00-00----------------------|
|--0-0000-0-0-0-----00-00----------------------|

guitar 1
|------------------------------------------------------|
|----------------99------------------------99----------|
|--------------77--99--------------------77--99--------|
|--99----88------------------99----88----------------0-|
|----8877--7766----------------8877--7766------6-5-3-0-|
|--------------------66553300------------------6-5-3-0-|

guitar 2
|-------------------------------------------------------|
|-------------------------------------------------------|
|-------------------------------------------------------|
|--99----88------99----------99----88------99---------0-|
|----8877--776677--88----------8877--776677--88-6-5-3-0-|
|--------------------66553300-------------------6-5-3-0-|
 
both guita                              
|------------------------------------------------------------------------|
|------------------------------------------------------------------------|
|------------------------------------------------------------------------|
|--3-0---3-0---3-0---3-0------------------------------------------3------|
|--3-0---3-0---3-0---3-0--------3h5--5p3---------------3h5--5p3----53h5--|
|--3-0---3-0---3-0---3-0--00-3h5---00---5p3-2h33-00-3h5---00---5p0-------|
                                    play this riff twice
guitar 1
|------------------------------------------------------------------------|
|------------------------------------------------------------------------|
|------------7/6-----------7/6----------------------7/6--------------7/6-|
|------------6/5-----------6/5----------------------6/5-7*-----------6/5-|
|--------3h5-5/4-------3h5-5/4-00-0-0-0-0-------3h5-5/4----------3h5-5/4-|
|--00-3h5--------00-3h5--------00-0-0-0-0-00-3h5-----------00-3h5--------|

|------------------------------------------------------------------------|
|-------------------------------------------------6h8h10-----------------|
|---------7/6-------7/6\7/6-------7/6-------6h8h10---------7/6\9/6\7/6---|x4
|---------6/5-------6/5\6/5-------6/5----------------------6/5\8/5\6/5---|
|---------5/4-------5/4\5/4-------5/4----------------------5/4\7/4\5/4---|
|--000-000---000-000-------000-000---000-000-----------------------------|

guitar 2
|------------------------------------------------------------------------------|
|------------------------------------------------------------------------------|
|-----------13/12-----------13/12----------------------13/12-------------13/14-|
|-----------12/11-----------12/11----------------------12/11-7*----------12/13-|
|-------3h5-11/10-------3h5-11/10-00-0-0-0-0-------3h5-11/10---------3h5-11/12-|
|-00-3h5----------00-3h5----------00-0-0-0-0-00-3h5-------------00-3h5---------|

|-----------------------------------------------------------------------------------------|
|-----------------------------------------------------------------------------------------|
|---------13/12-------13/12\13/12-------13/12-------------------------13/12\15/12\13/12---|x4
|---------12/11-------12/11\12/11-------12/11--------8h10h11-11h12h14-12/11\14/11\12/11---|
|---------11/10-------11/10\11/10-------11/10-------------------------11/10\13/10\11/10---|
|--000-000-----000-000-----------000-000-----000-000--------------------------------------|


weird sounding bit:
guitar 1
|---------------------------------|
|----------------6p0--------------|
|-------7p0---------7p0-----------|
|--0-6p0---6p0-0-------6p0--------|
|---------------------------------|
|---------------------------------|

guitar 2
|--------17------------|
|--13h15---18-15-17----|
|----------------------|
|----------------------|
|----------------------|
|----------------------|

it sound like pinch harmonics to me but u can play
it as chords or what ever u think sounds best

both guitars            last time
|---------------------|--------------------|
|---------------------|--------------------|
|---------------------|--------------------|
|---------------------|--------------------|x4
|--7*-8*-5*-----------|--7*-8*-5*----------|
|-----------000000000-|----------00305020--|

i play this:
|-----------------------------------|---------------------------|
|-----------------------------------|---------------------------|
|-----------------------------------|---------------------------|
|-------------7-8-7--5h7---------x3-|---------------------------|
|-----5h8-3h5-----------------------|---------------------------|
|--00--------0-0-0-00---00335522----|-003355227733552277335522--|
                                           on last on play

but it sound like its this its up to u what u want to play :)
|------------------------------------------|---------------------------|
|------------------------------------------|---------------------------|
|----10/9--9\10-14-15-14--12/14------------|---------------------------|
|-----x-x--x-x--x--x--x----x-x----------x3-|---------------------------|
|-----8/7--7\8--12-13-12--10/12------------|---------------------------|
|--00----------0--0--0--00------00335522---|-003355227733552277335522--|


country bit:

guitar 1
|-----------------------------------------------------------------|
|-------11-11-----11-11-------------------11-11------11-11--------|
|--11b12-----11b12------8-8-8--8-8-8-11b12-----111b12------8-8-8--|
|-----------------------8-8-8--8-8-8-----------------------8-8-8--|
|-----------------------------------------------------------------|
|-----------------------------------------------------------------|

|-------------------------------------------------|
|-------11-11-----11-11---------------------------|
|--11b12-----11b12------8-8-8--8-8-8----11-11-11--|
|-----------------------8-8-8--8-8-8----11-11-11--|
|-------------------------------------------------|
|-------------------------------------------------|

guitar 2
should be plyed with a slide          
|---------------------------|
|--16-----------------------|
|-----17-15-17--------------|
|--------------17-15-13-----|
|---------------------------|
|---------------------------|

the end is something like he uses an wammy bar but if u dont
have one u can use a pedal witch goes down an octive or somethin on the pinch harmonics

i use that on my boss me-50

guitar 1
|--------------------------------t12p9p6t13p9p6t12p9p6t13p9p6--|
|-----------------------0*-------------------------------------|
|----------0*--------------------------------------------------|
|--0-3-2-0------0-3-2-0------0-3-------------------------------|
|--0-3-2-0------0-3-2-0------0-3-------------------------------|
|--0-3-2-0------0-3-2-0------0-3-------------------------------|

guitar 2
|--------------------------------t15p12p9t14p12p9t15p12p9t16p12p9--|
|-----------------------0*-----------------------------------------|
|----------0*------------------------------------------------------|
|--0-3-2-0------0-3-2-0------0-3-----------------------------------|
|--0-3-2-0------0-3-2-0------0-3-----------------------------------|
|--0-3-2-0------0-3-2-0------0-3-----------------------------------|

thats pretty much it let us kno if there are any problems with it
and rate plz :)

cheers for checking it out and hope u enjoy :)
Suggest correction
comments
print report bad tab
4 comments total. Showing first comments.
0 reply
MutilationOfMan 10 Apr 09, 2010 11:14 AM

dude i think its pretty awesome you should tab more i have no ear for this stuff lol. but alasken flounder basket would be much appreciated

0 reply
zack65 10 Apr 16, 2010 07:59 AM

really good : ) please post more tabs from this band

0 reply
thephilguy 10 May 25, 2010 04:04 PM

Good tab but so disorganized. :|

guest
You may want to rate the tab now too:
select rating
Wanna post a correction for this tab? Suggest correction