Oops, an error
Loading. Please wait.

You Aint No Family tab

version 2
version 2

Whole song

Interactive

5,555 views 1 this week
7 commentsread comments
1 2 3 4 5
x 6
add to favorites
×
Save as Personal and add changes to this tab that will be seen only by you. Learn more ›
×
You can save this tab as Personal to edit and correct it or add notes. All changes will be seen only by you. Learn more »
launch autoscroll
font size
0
reset
how to read this tab
guitar tuner
edit
Autoscroll
slow
fast
+/-
esc
set tempo
stop
I Wrestled A Bear Once!!!
One Great Band. Sorry it's not the whole song. But
here's the breakdown!!!
http://www.myspace.com/iwrestledabearonce


     They use A pedal here but I manage without it
     It's either a cry baby or wah not exactly sure

D|------------------------------------|            \
A|------------2*--------------2*------|             \
F|------------------------------------|              \
C|-0-3-1-0-----------3-1-0--------0-3-|               \
G|-0-3-1-0-----------3-1-0--------0-3-|                \
C|-0-3-1-0-----------3-1-0--------0-3-| Starts at 3:30  \
   * * * *           * * *        * *                    \ 
                                                          \
                                                           \
D|--12T9P6H9-13T9P6H9-12T9P6H9-13T9P6H9-----------|         \
A|------------------------------------------------|          \
F|------------------------------------------------|           \  x4
C|------------------------------------------------|           /
G|------------------------------------------------|          /
C|------------------------------------------------|  Crazy Tapping Part

D|--------------------|     \
A|--------------------|      \
F|--------------------|       \  This Ends The Song
C|--0-3-1-0-----------|       /  x1
G|--0-3-1-0-----------|      /
C|--0-3-1-0-----------|     /
    * * * *

Tab Notes
T=Tap
*=Palm Mutes
 -The 2's in the beginnning are harmonics
 -*=Harmonic As Well
Suggest correction
Creating personal tab
Creating personal tab
You can edit any tab online and save it as your Personal.

You can edit, replace or remove any tab part or add personal notes – all changes will be seen only by you.

Personal tabs can be accessed anytime from any device, even offline.
Learn more »
comments
print report bad tab
7 comments total. Showing first comments.
0 reply
lmpguitarist 76 Nov 13, 2009 11:38 AM

their name is just one word
also its not harmonics that they do there

0 reply
lmpguitarist 76 Nov 15, 2009 05:45 AM

i looked at the video, and in the section right before this one they use slides. im pretty sure what u have as pinch harmonics here is really them taking the slides and going up-down-up (with up meaning going up the neck) on the high string.

0 reply
Harrisfun 51 Dec 12, 2009 01:39 PM

fyi, a cry baby and a wah are the same thing

guest
You may want to rate the tab now too:
select rating
Wanna post a correction for this tab? Suggest correction