Oops, an error
Loading. Please wait.

Deep Blue Sea Tab

46 views 3 this week
no commentswrite comment
1 2 3 4 5
2 more votes to show rating
add to favorites
launch autoscroll
font size
0
reset
how to read this tab
guitar tuner
Autoscroll
slow
fast
+/-
esc
set tempo
stop
Help us to improve Ultimate-Guitar.com Take our survey!
×
Author
Difficulty
novice
About this tab version
There are two versions included in this tab: the original which consists of barre chords, and the simplified version which uses the base version of the same chords. Was this info helpful? Yes No
Based on the following live performance: [https://www.youtube.com/watch?v=ykkAKNWdjNI]

Base chords:

Dm7     A7      A#7      A7

Transition chords (last in a set):

Dm7     A7      G7

Here G7 is played with a single strum.



Strum pattern w/ simplified chords (which is the same for both versions):

e|---h1---1------------0---0---------1---1---------1--1--0--0--------------------|
B|---h1---1------------2---2---------3---3---------3--3--2--2--------------------|
G|---h2---2------------0---0---------1---1---------1--1--0--0--(back to the top)-|    
D|----0---0---PM-------2---2---PM----3---3---PM----3--3--2--2--------------------|
A|----0---0------------0---0---------1---1---------1--1--0--0--------------------|
E|----x---x------------x---x---------x---x---------x--x--x--x--------------------|


Original (barre chords):

e|-----5---5---------5---5----------6---6----------6--6--5--5---------------------|
B|----5h6--6---------5---5----------6---6----------6--6--5--5---------------------|
G|-----5---5---------6---6----------7---7----------7--7--6--6---------------------|
D|----5h7--7---PM----5---5---PM-----6---6---PM-----6--6--5--5--(back to the top)--|
A|-----5---5---------7---7----------8---8----------8--8--7--7---------------------|
E|-----x---x---------5---5----------6---6----------6--6--5--5---------------------|

| x   Dead note
| h   Hammer-on
| PM  Palm mute

Note: The palm mutes can be swapped out for one or several muted strums as well. 

************************************


Intro:
Dm7     A7      A#7      A7
Dm7     A7      G7

Chorus:
Dm7     A7      A#7      A7        x3
Dm7     A7      G7           

Verse: 
(Like chorus, but quieter and without hammer-ons or palm mutes, just strumming in same pattern.)
Dm7     A7      A#7      A7        x3
Dm7     A7      G7

Outro/Instrumental:
Same as verse.

Song structure:
1. Intro
2. Chorus
3. Verse
4. Chorus
5. Verse
6. Chorus v.2 (instead of the second A7, play C7 - for barre chords, same shape as others but barre on 8th)
7. Outro/Instrumental






************************************
Suggest correction
Give kudos to tab author, rate the tab!
1 2 3 4 5
comments
print report bad tab
guest
You may want to rate the tab now too:
select rating
Wanna post a correction for this tab? Suggest correction