Oops, an error
Loading. Please wait.

Mad Behaviour chords

version 1
version 1

Whole song

  • Shout out to: pplegato 59 this is a simpler versio... Show more
3,052 views 45 this week
no commentswrite comment
1 2 3 4 5
x 6
add to favorites
×
Save as Personal and add changes to this tab that will be seen only by you. Learn more ›
×
You can save this tab as Personal to edit and correct it or add notes. All changes will be seen only by you. Learn more »
launch autoscroll
font size
0
reset
transpose
0
reset
simplify chords
display chords
guitar tuner
edit
Autoscroll
slow
fast
+/-
esc
set tempo
stop
Author
Difficulty
Strumming
There is no strumming pattern for this song yet. and get +5 IQ
Izzy Bizu - Mad Behaviour

The rythm might feel a little strange since it's written in 7/4. The verse and the bridge
are split into a bar of 4/4 followed by a bar of 3/4 except the last two bars of the bridge which are 4/4.
The chorus and part c is reversed so split into a bar of 3/4 followed by a bar of 4/4, but as the bridge 
the last two bars are 4/4.

[Verse/Intro]

Eb - Ddim - Cm - Cm - Bb - Eb

[Bridge]

Eb - Eb - Ddim - Cm - Cm - Bb - Ab - Bb 

[Chorus/Part C/Outro]

Eb - Ddim - Cm - Fm - Gm - Cm

[Chorus variation]

Eb - Ddim7 - Cm7 - Fm7 - G7 - Cm7


[Part C]

This part is made off two voices, so i just took bits and pieces of both
and put them together so you can play it by yourself.
e|-6------4-----|-3-------------------|-----1-----3-|-----------------3---|
B|---8------6---|---4-----------1-3-4-|---1-----3---|-4-3-----------------|
G|-----8------7-|-----5---------------|-1-----3-----|-5----5--------5-----| x3
D|--------------|---------------------|-3-----5-----|-5-------------------|
A|--------------|---------------------|-------------|---------------------|
E|--------------|---------------------|-------------|---------------------|

e|--------------|---------------------|-1----------1--|-3-----------3--|
B|--------------|---------------1-3-4-|-1----------1--|-3-----------3--|
G|-----3------1-|-----0---------------|-1----------1--|-3-----------3--| 
D|---5------3---|---1-----------------|-3--------3----|-5---------5----|
A|-6------5-----|-3-------------------|---------------|----------------|
E|--------------|---------------------|---------------|----------------|


[Outro]

e|-6------4-----|-3-------------------|---------------|---------------------|
B|---8------6---|---4-------------3-4-|-3h4-3---------|-----------------3---|
G|-----8------7-|-----5---------5-----|-------5-3-5-3-|---------------5-----| 
D|--------------|---------------------|---------------|-5-------------------|
A|--------------|---------------------|---------------|---------------------|
E|--------------|---------------------|---------------|---------------------|

e|-6------4-----|-3-------------------|---------------|---------------------|
B|---8------6---|---4-------------3-4-|-3h4-3---------|---------------------|
G|-----8------7-|-----5---------5-----|-------5-3-5-3-|-5-------------3-0---| 
D|--------------|---------------------|---------------|---------------------|
A|--------------|---------------------|---------------|---------------------|
E|--------------|---------------------|---------------|---------------------|

e|-10-11-10-10-11-10-|---------------------|-1-------------|-3---------------|------|
B|-------------------|-8-------------1-3-4-|-1-----------1-|-3-----------3---|-4----|
G|-------------------|---------------------|-1-------------|-3---------------|-3----|
D|-------------------|---------------------|-3-------------|-5---------------|-5----|
A|-------------------|---------------------|---------------|-----------------|-6----|
E|-------------------|---------------------|---------------|-----------------|------|

--------------------------------------------------------------------------------------------------------------

[Intro]

Eb   Eb   Ddim   Cm
Ooh, ooh, ah
Cm   Bb   Eb   Eb   Ddim Cm   
Ooh, ooh, ooh, ooh, ah
Cm  Bb
Ooh, ooh


[Verse]

Eb                        Eb   Ddim  Cm
 You have the sweetest soul I ever seen
                 Cm         Bb
So why am I so venom and green?
Eb                      Eb     Ddim     Cm
 I don't know why I push your boundaries
              Cm         Bb  
Paranoia, I'm my worst enemy
Eb                         Eb     Ddim  Cm
 You have the sweetest soul I've ever seen
Cm    Bb           
Every time I scream


[Bridge]

Eb                      
 You're the man I go to
Eb             Ddim   Cm   Cm  Bb   
 You're the man I row to
Ab
 You're the man I go
Bb                        Eb  Ddim     
 You're the man I row to


[Chorus]

   Cm             Fm
Savior rein me in
Gm            Cm           Eb  Ddim
Don't mind my mad behavior
   Cm             Fm
Savior rein me in
Gm      Cm
One day I will save you
Eb Ddim Cm               Fm  Gm  Cm
Ooooooooold,and in the cold
              Eb  Ddim
Under the mud
    Cm            Fm
Savior rein me in
            Gm          
One day I will save you


[Verse]

Eb                        Eb    Ddim    Cm  
 Sometimes I push myself, right off the beams
            Cm            Bb
I vanish inside blue streams
Eb                 
 I walk the waters
Eb             Ddim  Cm
 sail through the trees
             Cm  Bb  
I need your reassurance
Eb               Eb      Ddim           
You, you have my life in both your hands
Cm              Cm          Bb        
I'm, I'm just a fish out of water


[Bridge]

Eb                      
 You're the man I go to
Eb             Ddim   Cm   Cm  Bb   
 You're the man I row to
Ab
 You're the man I go
Bb                        Eb  Ddim     
 You're the man I row to


[Chorus]

   Cm             Fm
Savior rein me in
Gm            Cm           Eb  Ddim
Don't mind my mad behavior
   Cm             Fm
Savior rein me in
Gm      Cm
One day I will save you
Eb Ddim7 Cm7            Fm7  G7  Cm7
Ooooooooold, out in the cold
              Eb  Ddim
Under the mud
    Cm            Fm
Savior rein me in
            Gm          
One day I will save you


[Part C]

Eb Ddim Cm   Fm Gm Cm           e|-6------4-----|-3-------------------|-----1-----3-|-----------------3---|
                                B|---8------6---|---4-----------1-3-4-|---1-----3---|-4-3-----------------|
Eb   Ddim      Cm               G|-----8------7-|-----5---------------|-1-----3-----|-5----5--------5-----| x3
Everywhere you go,              D|--------------|---------------------|-3-----5-----|-5-------------------|
Fm     Gm     Cm                A|--------------|---------------------|-------------|---------------------|
I will follow you               E|--------------|---------------------|-------------|---------------------|
     Eb     Ddim    Cm
Even if you tell me no          e|--------------|---------------------|-1----------1--|-3-----------3--|
Fm     Gm     Cm                B|--------------|---------------1-3-4-|-1----------1--|-3-----------3--|
I will follow you               G|-----3------1-|-----0---------------|-1----------1--|-3-----------3--| 
           Eb Ddim Cm           D|---5------3---|---1-----------------|-3--------3----|-5---------5----|
'Til we're old                  A|-6------5-----|-3-------------------|---------------|----------------|
            Fm  Gm              E|--------------|---------------------|---------------|----------------|
and in the cold
              Eb Ddim
Under the mud

           
[Chorus]

   Cm             Fm
Savior rein me in
Gm            Cm           Eb  Ddim
Don't mind my mad behavior
   Cm             Fm
Savior rein me in
Gm      Cm
One day I will save you
Eb Ddim7 Cm7             Fm7  G7  Cm7
Ooooooooold,and in the cold
              Eb  Ddim
Under the mud
    Cm            Fm
Savior rein me in
            Gm          
One day I will save you


[Outro]

       Eb   Ddim  Cm  Fm Gm Cm       
I will save you
           Eb Ddim Cm  Fm Gm Cm
'Til we're old
          Eb Ddim Cm  Fm   Gm   Eb
Oh, we're oooooooold, ooh, ooh, ooh


e|-6------4-----|-3-------------------|---------------|---------------------|
B|---8------6---|---4-------------3-4-|-3h4-3---------|-----------------3---|
G|-----8------7-|-----5---------5-----|-------5-3-5-3-|---------------5-----|
D|--------------|---------------------|---------------|-5-------------------|
A|--------------|---------------------|---------------|---------------------|
E|--------------|---------------------|---------------|---------------------|

e|-6------4-----|-3-------------------|---------------|---------------------|
B|---8------6---|---4-------------3-4-|-3h4-3---------|---------------------|
G|-----8------7-|-----5---------5-----|-------5-3-5-3-|-5-------------3-0---| 
D|--------------|---------------------|---------------|---------------------|
A|--------------|---------------------|---------------|---------------------|
E|--------------|---------------------|---------------|---------------------|

e|-10-11-10-10-11-10-|---------------------|-1-------------|-3---------------|------|
B|-------------------|-8-------------1-3-4-|-1---------1---|-3-----------3---|-4----|
G|-------------------|---------------------|-1-------------|-3---------------|-3----|
D|-------------------|---------------------|-3-------------|-5---------------|-5----|
A|-------------------|---------------------|---------------|-----------------|-6----|
E|-------------------|---------------------|---------------|-----------------|------|



************************************

| h  Hammer-on

************************************

            
            
Suggest correction
Creating personal tab
Creating personal tab
You can edit any tab online and save it as your Personal.

You can edit, replace or remove any tab part or add personal notes – all changes will be seen only by you.

Personal tabs can be accessed anytime from any device, even offline.
Learn more »
comments
print report bad tab
guest
You may want to rate the tab now too:
select rating
Wanna post a correction for this tab? Suggest correction