Oops, an error
Loading. Please wait.

White Tiger chords

version 2
version 2

Whole song

  • Listen to song to determine strumming pattern in intro. Have fun :).
1,540 views 1 this week
no commentswrite comment
1 2 3 4 5
2 more votes to show rating
add to favorites
×
Save as Personal and add changes to this tab that will be seen only by you. Learn more ›
×
You can save this tab as Personal to edit and correct it or add notes. All changes will be seen only by you. Learn more »
launch autoscroll
font size
0
reset
transpose
0
reset
simplify chords
display chords
guitar tuner
edit
Autoscroll
slow
fast
+/-
esc
set tempo
stop
Strumming
There is no strumming pattern for this song yet. and get +5 IQ
[Chorus]

(Main riff plays over the chorus, very staccato)

  FM7          D             C          Emin
e|0-------0-0---------------------------------------------------|
B|-------------3--------3-3--1--------1-0--1------1---1----3--3-|
G|2-------2-2--2--------2-2--0--------0-0--0------0---0----0--0-|
D|3-------3-3--0--------0-0--2--------2-2--2------2---2----2--2-|
A|---------------------------3--------3-2--3----3---3---3-------|
D|3-------3-3--0--------0-0-------------------------------------|

Oh White, white tiger
High bright rollercoaster
If I am still got on these safety bars
I probably made it
Don't come for white, mmm


[Verse 1]

(Main riff for first line of verse, but let the notes sounds out more)

  FM7          D             C          Emin
e|0-------0-0---------------------------------------------------|
B|-------------3--------3-3--1--------1-0--1------1---1----3--3-|
G|2-------2-2--2--------2-2--0--------0-0--0------0---0----0--0-|
D|3-------3-3--0--------0-0--2--------2-2--2------2---2----2--2-|
A|---------------------------3--------3-2--3----3---3---3-------|
D|3-------3-3--0--------0-0-------------------------------------|
This hard wind hits my skin
I begin and take a breath, mmm

(Chords are now played in a light fashion, feel free to improvise between chords) 


FM7           D               C     Cadd9
And all adrenalin rushes to my head
FM7
And I’m not in my comfort zone
     D                       C 
When I wake up but not alone right now
    Emin C                 Cadd9
Whoa, my head is in the clouds

You're my....


[Chorus]

  FM7          D             C          Emin
e|0-------0-0---------------------------------------------------|
B|-------------3--------3-3--1--------1-0--1------1---1----3--3-|
G|2-------2-2--2--------2-2--0--------0-0--0------0---0----0--0-|
D|3-------3-3--0--------0-0--2--------2-2--2------2---2----2--2-|
A|---------------------------3--------3-2--3----3---3---3-------|
D|3-------3-3--0--------0-0-------------------------------------|

Oh White, white tiger
High bright rollercoaster
If I am still got on these safety bars
I probably made it
Don't come for white, mmm


[Verse 2]

(all is lightly strummed with improv)

FM7
What a damn
       D
Make a stand         
                     C             Cadd9
Drunken ways take control, oh, oh, oh
FM7            D
I was drowning
                        C    Cadd9
But you’re keeping me afloat

        FM7       D  C  Emin          
You're my ohhh white, white

FM7 (strum too build up)
And I’m not in my comfort zone
     D                       C
When I wake up but not alone right now
   Emin C                 Cadd9
Whoa, my head is in the clouds

You're my...


[Chorus]

(Main riff plays over the chorus, very staccato)

  FM7          D             C          Emin
e|0-------0-0---------------------------------------------------|
B|-------------3--------3-3--1--------1-0--1------1---1----3--3-|
G|2-------2-2--2--------2-2--0--------0-0--0------0---0----0--0-|
D|3-------3-3--0--------0-0--2--------2-2--2------2---2----2--2-|
A|---------------------------3--------3-2--3----3---3---3-------|
D|3-------3-3--0--------0-0-------------------------------------|

Oh White, white tiger
High bright rollercoaster
If I am still got on these safety bars
I probably made it
Don't come for white, mmm


[Bridge]

FM7                     D
Island or dry land will take me there
          C                           Emin
Who up in my head this clear bed will take me there
          FM7     D
You're my ohhh white, ooh, tiger


[Outro]

e|-------------------------------------------------------------0-|
B|----1--3----1--------1--3----1-------1--3----1-------1--3------|
G|0-2----2----0----0-2----2----0---0-2----2----0---0-2----2----2-|
D|-------0----2-----------0----2----------0----2----------0----3-|
A|---------------------------------------------------------------|
D|-------0----------------0---------------0---------------0----3-|  x2



[Chords]

   FM7       D        C       Emin    Cadd9
e |-0-|    |-x-|    |-x-|    |-x-|    |-x-|
B |-x-|    |-3-|    |-1-|    |-0-|    |-3-|
G |-2-|    |-2-|    |-0-|    |-0-|    |-0-|
D |-3-|    |-0-|    |-2-|    |-2-|    |-2-|
A |-x-|    |-x-|    |-3-|    |-2-|    |-3-|
D |-3-|    |-0-|    |-x-|    |-x-|    |-x-|


************************************

| x  Dead note

************************************
Suggest correction
Creating personal tab
Creating personal tab
You can edit any tab online and save it as your Personal.

You can edit, replace or remove any tab part or add personal notes – all changes will be seen only by you.

Personal tabs can be accessed anytime from any device, even offline.
Learn more »
Give kudos to tab author, rate the tab!
1 2 3 4 5
comments
print report bad tab
guest
You may want to rate the tab now too:
select rating
Wanna post a correction for this tab? Suggest correction