Oops, an error
Loading. Please wait.

Ein Guter Tag Zum Sterben tab

version 1
version 1

Whole song

Interactive

by J.B.O.
42,671 views 27 this week
4 commentsread comments
1 2 3 4 5
x 7
add to favorites
×
Save as Personal and add changes to this tab that will be seen only by you. Learn more ›
×
You can save this tab as Personal to edit and correct it or add notes. All changes will be seen only by you. Learn more »
launch autoscroll
font size
0
reset
how to read this tab
guitar tuner
edit
Autoscroll
slow
fast
+/-
esc
set tempo
stop
Author
Unregistered
[Chords]
e|--3------2------3------0------3------0------0------0------0------0-------|
B|--3------3------3------3------3------0------1------3------3------1-------|
G|--0------2------0------2------0------0------0------2------0------2-------|
D|--2------0------0------2------0------2------2------0------2------2-------|
A|--3------x------2------0------2------2------3------0------2------0-------|
E|--x------x------x------x------3------0------3------2------0------x-------|
Cadd9 D G/h Asus4 G e C/g D/fis e7 a

[Riff 1]
e|------3-----2--2----------------------0---3------|------------------------|
h|------3-----3----3---------3-----3----3---3------|------------------------|
G|------0-----2------2---2-----0-----0--2---0------|------------------------|
D|------2-----0-------------------------2---0------|------------------------|
A|------3--------------0---3-----2------0---2------|------------------------|
E|------------------------------------------3------|------------------------|

[Riff 2]
e|--------------0--0------------|--------------------------------------------|
B|--------------3----3----------|--------------------------------------------|
G|-------0---0--2------2---2----|--------------------------------------------|
D|--------------2---------------|--------------------------------------------|
A|-----3---2----0--------0------|--------------------------------------------|
E|------------------------------|--------------------------------------------|



************************************

| x  Dead note
| h  Hammer-on

************************************
Suggest correction
Creating personal tab
Creating personal tab
You can edit any tab online and save it as your Personal.

You can edit, replace or remove any tab part or add personal notes – all changes will be seen only by you.

Personal tabs can be accessed anytime from any device, even offline.
Learn more »
comments
print report bad tab
4 comments total. Showing first comments.
+2 reply
Momro 141 May 26, 2013 02:10 AM

Ist jetzt nichts, was ich als "Tab" bezeichnen würde.

0 reply
Darkaz 144 Apr 22, 2014 12:42 PM

Danke, danke, danke!

Habe lange nach den richtigen Chords gesucht! Und hier endlich gefunden.

guest
Wanna post a correction for this tab? Suggest correction