Oops, an error
Loading. Please wait.

More Tab

1,234 views 3 this week
no commentswrite comment
1 2 3 4 5
please rate
add to favorites
launch autoscroll
font size
0
reset
how to read this tab
guitar tuner
Autoscroll
slow
fast
+/-
esc
set tempo
stop
Help us to improve Ultimate-Guitar.com Take our survey!
×
Capo
5th fret
          "More" by j. englishman
          Music: j. englishman/t. macdonald
          Lyrics: . englishman
           
          Verse/Intro/bridge
          Gtr 1 
          Clean single coil, Capo 5th fret 
          W/16th note soft deep tremolo
                                                      * repeat this bar
          e--------------------|--------------------|---------------------e
          b--------------------|--------------------|15h17-17x17x17x18-15-b
          g--------------------|--------------------|5--5--5--5--5--5--5--g
          d--10---10---10---10-|---10---10---10---10|5--5--5--5--5--5--5--d
          a5----5----5---5-----|8-----8-----8---8---|---------------------a
          e--------------------|--------------------|---------------------e
           
          
          Gtr 2
          Clean single coil, drop d tuning
          
          e--------------------|--------------------|0--0--0--0--0--0--0--e
          b--------------------|--------------------|3-h5--5--5--5--6--5--b
          g---5----------------|---5----------------|5--5--5--5--5--5--5--g
          d0----0--------------|0----0--------------|---------------------d
          a--------------------|--------------------|---------------------a
          d--------------------|--------------------|---------------------d
            
          
          Prechorus riff
          Gtr 1
          Heavy Distortion, drop d tuning
          
          e-----------------------|-----------------------e 
          b-----------------------|-----------------------b 
          g-----------------------|-----------------------g 
          d-----------------------|-----------------------d
          a1/3-3x3x3*~--3--3h4p3--|1/3-3x3x3*~--3--3h4p3--a
          d---------------------5\|---------------------5\d
          
          
          Gtr 2
          e-----------------------|-----------------------e
          b-----------------------|-----------------------b
          g3/5-5x5x5*~--5--5h6p5--|3/5-5x5x5*~--5--5h6p5--g
          d---------------------5\|---------------------5\d
          a-----------------------|-----------------------a
          d-----------------------|-----------------------d
          
          Harmonic Fill for Intro
          Accoustic with slight chorus & delay
          
          e----------------|---------------|----------------|-----------------|
          b----------------|---------------|----------------|-----------------|
          g-<7>------------|<5>------------|<5>-------------|<5>--------------|
          d-<7>------------|<5>---------<5>|------<5>-------|------<5>-<12><7>|
          a----------------|---------------|----------------|-----------------|
          e----------------|---------------|----------------|-----------------|
          
          e----------------|---------------|----------------|-----------------|
          b----------------|---------------|----------------|-----------------|
          g--------<5>-----|<12>-------<5>-|<5>~~~~~~~~~~~~~|~~~~~~-----------|
          d<5>--------<5>--|-----<7><5>-<5>|<5>~~~~~~~~~~~~~|~~~~~~~----------|
          a----------------|---------------|----------------|-----------------|
          e----------------|---------------|----------------|-----------------|
          *Vibrato effect created by striking harmonics then placing right hand on 
guitar body just above the neck joint, grabbing headstock with left hand, push and 
release to bend neck/dip notes OR place right hand directly behind the bridge, pull 
back on headstock to raise notes **!BE CAREFULL!** 
          
          Chorus
          Gtr 1
          Heavy distortion. drop d tuning
          
          e-----------------|-----------------------|-----------------------e
          b-----------------|-----------------------|-----------------------b
          g-----------------|-----------------------|-----------------------g
          d-----------------|-----------------------|-----------------------d
          a--0-(0-h2-h3)-3--|1/3-3x3x3*~--3--3h4p3--|1/3-3x3x3*~--3--3h4p3--a
          d--0-(0-h2-h3)-3--|---------------------5\|---------------------5\d
           PM------------
             8x(triplet) 7x
          
          e---------------------------e
          b---------------------------b
          g---------------------------g
          d-----------------3/5-3-2-3-d
          a--0-(0-h2-h3)-3------------a
          d--0-(0-h2-h3)-3------------d
           PM-------------
             8x(triplet) 3x
          
          e-----------------------|-----------------------e
          b-----------------------|-----------------------b
          g-----------------------|-----------------------g
          d-----------------------|-----------------------d
          a1/3-3x3x3*~--3--3h4p3--|1/3-3x3x3*~--3--3h4p3--a
          d---------------------5\|---------------------5\d
          
          Gtr 2
          Heavy Distortion, drop d tuning
          
          
          e-----------------|-----------------------|-----------------------e
          b-----------------|-----------------------|-----------------------b
          g-----------------|3/5-5x5x5*~--5--5h6p5--|3/5-5x5x5*~--5--5h6p5--g
          d-----------------|---------------------5\|---------------------5\d
          a--0-(0-h2-h3)-3--|-----------------------|-----------------------a
          d--0-(0-h2-h3)-3--|-----------------------|-----------------------d
           PM------------
             8x(triplet) 7x
          
          e---------------------------e
          b---------------------------b
          g---------------------------g
          d-----------------3/5-3-2-3-d
          a--0-(0-h2-h3)-3------------a
          d--0-(0-h2-h3)-3------------d
           PM-------------
             8x(triplet) 3x
          
          e-----------------------|-----------------------e
          b-----------------------|-----------------------b
          g3/5-5x5x5*~--5--5h6p5--|3/5-5x5x5*~--5--5h6p5--g
          d---------------------5\|---------------------5\d
          a-----------------------|-----------------------a
          d-----------------------|-----------------------d
          
          
          Guitar overdub for last chorus
          
          Heavy Distotion, drop d tuning
          slow wah-wah pedal sweep across phrase
          
          e--------------|-----------------------|-----------------------e
          b--------------|-----------------------|-----------------------b
          g--7---9---10--|-----------------------|-----------------------g
          d--------------|-----------------------|-----------------------d
          a--5---7---8---|1/3-3x3x3*~--3--3h4p3--|1/3-3x3x3*~--3--3h4p3--a
          d--------------|---------------------5\|---------------------5\d
             14x 2x  16x
          ~ vibrato
          * pinch harmonic
          / slide
          h hammer on 
          p pull off 
          PM palm mute 
          
          hatemail and complaints to j@jenglishman.com
Suggest correction new What's this?
You can suggest a correction to this tab. Community and Mods will review your correction and vote to approve or reject it.
comments
We did not receive enough feedback on this tab! Please rate:
print report bad tab
1 2 3 4 5
guest
You may want to rate the tab now too:
select rating
Please do not post tabs as comments. Select "correction" instead!