Oops, an error
Loading. Please wait.

Last Kiss Bass Tab

version 1
version 1

Whole song

Interactive

7,020 views 30 this week
2 commentsread comments
1 2 3 4 5
excellent!
x 4
add to favorites
launch autoscroll
font size
0
reset
guitar tuner
Tab Pro tools
  • play this tab
  • loop segment
  • change instrument
  • show fretboard
  • metronome
Autoscroll
slow
fast
+/-
esc
set tempo
stop
Contributor
Difficulty
novice
-------------------------------------------------------------------------------
			     Last Kiss - J Frank Wilson And The Cavaliers
-------------------------------------------------------------------------------

Tabbed By : nrrjw
Tuning: Standard

 This song is very fun to play, just play this riff over and over again.
G|-------------------------------------------|
D|-------------------------------------------|
A|----5--------2---2-3------7---5------------|
E|-3-----3-2-0---3------3-----------5--5--5--|


  Here's another way to play it without moving your hand around.
G|-------------------------------------------|
D|---0----------------------1---0------------|
A|-------------2---2-3---------------0--0--0-|
E|-3---3-2-0-----3-----3---------------------|


| /  slide up
| \  slide down
| h  hammer-on
| p  pull-off
| ~  vibrato
| +  harmonic
| x  Mute note
===============================================================================
comments
print report bad tab
2 comments total.
0 reply
zjcl1 wrote on February 17 2011, 11:33 pm

it works both ways but the last part has to many notes just play the last 5s on the E string or open A string once instead of three times

0 reply
Xwarfie wrote on July 10 2011, 10:40 pm

For the second version, it should be D 2nd fret, not 1st when replacing 7th on A

I want to post or [tab]
guest
You may want to rate the tab now too:
select rating
Please do not post tabs as comments. Select "correction" instead!