Oops, an error
Loading. Please wait.

Call Me The Breeze tab

version 1
version 1

Whole song

Interactive

58,307 views 93 this week
5 commentsread comments
1 2 3 4 5
x 19
add to favorites
×
Save as Personal and add changes to this tab that will be seen only by you. Learn more ›
×
You can save this tab as Personal to edit and correct it or add notes. All changes will be seen only by you. Learn more »
launch autoscroll
font size
0
reset
how to read this tab
guitar tuner
backing track
0:00
0:00
edit
Autoscroll
slow
fast
+/-
esc
set tempo
stop
Artist: J.J. Cale
Song: Call me the breeze

Lead rhythm: Capo at the 2nd fret

[Lead rhythm]
  F#                    
E|----------------------------------------|----------------------------------------|
B|----------------------------------------|----------------------------------------|
G|----------------------------------------|----------------------------------------|
D|---2--2------------2--2-----------------|-------------------2--2-----------------|
A|---2--2---4--5--4--2--2---4--5--4-------|--2--2---4--5--4---2--2--4--5--4--------|
E|---0------0--0--0---------0--0--0-------|--0------0--0--0---------0--0--4--------|

[Clear rhythm]
E|---2---------------2--------------------|--2----------------2--------------------|
B|---2------4--2--4--2------4--5--4-------|--2------4--2--4---2-----4--5--4--------|
G|---3------3--3--3---------3--3--3-------|--3------3--3--3---------3--3--3--------|
D|---4------4--4--4---------4--4--4-------|--4------4--4--4---------4--4--4--------|
A|----------------------------------------|----------------------------------------|
E|----------------------------------------|----------------------------------------|

[Lead rhythm]                                   
E|----------------------------------------|----------------------------------------|
B|----------------------------------------|----------------------------------------|
G|----------------------------------------|----------------------------------------|
D|-------------------2--2-----------------|-------------------2--2-----------------|
A|---2--2---4--5--4--2--2---4--5--4-------|--2--2---4--5--4---2--2--4--5--4--------|
E|---0------0--0--0---------0--0--0-------|--0------0--0--0---------0--0--4--------|

[Clear rhythm]
E|---2---------------2--------------------|--2----------------2--------------------|
B|---2------4--2--4--2------4--5--4-------|--2------4--2--4---2-----4--5--4--------|
G|---3------3--3--3---------3--3--3-------|--3------3--3--3---------3--3--3--------|
D|---4------4--4--4---------4--4--4-------|--4------4--4--4---------4--4--4--------|
A|----------------------------------------|----------------------------------------|
E|----------------------------------------|----------------------------------------|

[Lead rhythm]
E|----------------------------------------|----------------------------------------|
B|----------------------------------------|----------------------------------------|
G|---2--2------------2--2-----------------|-------------------2--2-----------------|
D|---2--2---4--5--4--2--2---4--5--4-------|--2--2---4--5--4---2--2--4--5--4--------|
A|---0------0--0--0---------0--0--0-------|--0------0--0--0---------0--0--0--------|
E|----------------------------------------|----------------------------------------|

[Clear rhythm]
E|---7---------------7--------------------|--7----------------7--------------------|
B|---7------9--7--9--7------9-10--9-------|--7------9--7--9---7-----9-10--9--------|
G|---8------8--8--8---------8--8--8-------|--8------8--8--8---------8--8--8--------|
D|---9------9--9--9---------9--9--9-------|--9------9--9--9---------9--9--9--------|
A|----------------------------------------|----------------------------------------|
E|----------------------------------------|----------------------------------------|

[Lead rhythm]
E|----------------------------------------|----------------------------------------|
B|----------------------------------------|----------------------------------------|
G|----------------------------------------|----------------------------------------|
D|---2--2------------2--2-----------------|-------------------2--2-----------------|
A|---2--2---4--5--4--2--2---4--5--4-------|--2--2---4--5--4---2--2--4--5--4--------|
E|---0------0--0--0---------0--0--0-------|--0------0--0--0---------0--0--4--------|

[Clear rhythm]
E|---2---------------2--------------------|--2----------------2--------------------|
B|---2------4--2--4--2------4--5--4-------|--2------4--2--4---2-----4--5--4--------|
G|---3------3--3--3---------3--3--3-------|--3------3--3--3---------3--3--3--------|
D|---4------4--4--4---------4--4--4-------|--4------4--4--4---------4--4--4--------|
A|----------------------------------------|----------------------------------------|
E|----------------------------------------|----------------------------------------|

[Lead rhythm]
E|----------------------------------------|----------------------------------------|
B|----------------------------------------|----------------------------------------|
G|----------------------------------------|----------------------------------------|
D|---9--9------------9--9-----------------|--7--7-------------7--7-----------------|
A|---9--9--11-12-11--9--9--11-12-11-------|--7--7---9-10--9---7--7--9-10--9--------|
E|---7------7--7--7---------7--7--7-------|--5------5--5--5---------5--5--5--------|

[Clear rhythm]
E|----9-----------------------------------|--7-------------------------------------|
B|----9-----------------------------------|--7-------------------------------------|
G|---10-->>>>>----------------------------|--8-->>>>>------------------------------|
D|---11-----------------------------------|--9-------------------------------------|
A|----------------------------------------|----------------------------------------|
E|----------------------------------------|----------------------------------------|

[Lead rhythm]
E|----------------------------------------|----------------------------------------|
B|----------------------------------------|----------------------------------------|
G|----------------------------------------|----------------------------------------|
D|---2--2------------2--2-----------------|-------------------2--2-----------------|
A|---2--2---4--5--4--2--2---4--5--4-------|--2--2---4--5--4---2--2--4--5--4--------|
E|---0------0--0--0---------0--0--0-------|--0------0--0--0---------0--0--4--------|

[Clear rhythm]
E|---2---------------2--------------------|--2----------------2--------------------|
B|---2------4--2--4--2------4--5--4-------|--2------4--2--4---2-----4--5--4--------|
G|---3------3--3--3---------3--3--3-------|--3------3--3--3---------3--3--3--------|
D|---4------4--4--4---------4--4--4-------|--4------4--4--4---------4--4--4--------|
A|----------------------------------------|----------------------------------------|
E|----------------------------------------|----------------------------------------|

[Intro]    
E|--------6-----6----6------6---------6---|------9-----9-----9-----9---------9-----|
B|--------------------------------5-------|-------------------------------8--------|
G|---4/6-----6-----6-----6----6-----------|--/9-----9----9------9------9-----------|
D|----------------------------------------|----------------------------------------|
A|----------------------------------------|----------------------------------------|
E|----------------------------------------|----------------------------------------|

E|--------11----11----11----11--------11--|-------14----14----14---14---------14---|
B|--------------------------------10------|-------------------------------14-------|
G|---9/11----11----11----11----11---------|-11/15---15----15----15----15-----------|
D|----------------------------------------|----------------------------------------|
A|----------------------------------------|----------------------------------------|
E|----------------------------------------|----------------------------------------|

[Verse 1]   
E|----------------------------------------|----------------------------------------|
B|----------------------------------------|----------------------------------------|
G|----------------------------------------|----------------------------------------|
D|----------------------------------------|----------------------------------------|
A|----------------------------------------|----------------------------------------|
E|----------------------------------------|----------------------------------------|
   call me the breeze                                   I keep blowing down the 

E|----------------------------------------|----------------------------------------|
B|----------------------------------------|----------------------------------------|
G|---------------14b----14\11!------------|-11------9---11!------------------14----|
D|--------16-16---------------------------|----11!-----------------------------16--|
A|----------------------------------------|----------------------------------------|
E|----------------------------------------|----------------------------------------|
   road                                                                      They

E|----------------------------------------|----------------------------------------|
B|----------------------------------------|----------------------------------------|
G|-14b---------------------14b-14b--------|----------------------------------------|
D|-----16^^-------------16---------16-----|----------------------------------------|
A|----------------------------------------|----------------------------------------|
E|----------------------------------------|----------------------------------------|
   call me the breeze                                   I keep blowing down the 

E|----------------------------------------|----------------------------------------|
B|----------------------------------------|----------------------------------------|
G|---------------14-16-14b----------14-16-|--17b18!----14-16-14--------------------|
D|---------14-16------------16----16------|---------------------16-14--------14b---|
A|----------------------------------------|----------------------------16----------|
E|----------------------------------------|----------------------------------------|
   road                                                                      I

E|----------------------------------------|----------------------------------------|
B|----------------------------14p12-14p12-|-14--------12---------------------------|
G|----------------------11/13-------------|----13\11------11^----------------------|
D|----------------------------------------|----------------------------------------|
A|--16^^----------------------------------|----------------------------------------|
E|----------------------------------------|----------------------------------------|
    ain't got me nobody                                            I ain' got me no

E|----------------------------------------|----------------------------------------|
B|----------------------------------------|-14b16-14b16----------------------------|
G|--------14b-14b----------14!------------|--------------15-11-14-11-13-11---------|
D|----------------16------------16--------|--------------------------------13--11^^|
A|----------------------------------------|----------------------------------------|
E|----------------------------------------|----------------------------------------|
   load                                                                   There's no
  
[Verse 2]
E|----------------------------------------|----------------------------------------|
B|----------------------------------------|----------------------------------------|
G|---------------------------------11-11^^|----------------------------------------|
D|--------------------------11-13---------|----------------------------------------|
A|----------------------------------------|----------------------------------------|
E|----------------------------------------|----------------------------------------|
    change in the weather                                                Ain't no

E|----------------------------------------|---------14---17-16-14------------------|
B|----------------------------------------|-----------14---------17-16-14----------|
G|---------------14b-14b-----14-16-14-16--|--17b18!----------------------16-14--14-|
D|-----------------------16---------------|-----------------------------------16---|
A|----------------------------------------|----------------------------------------|
E|----------------------------------------|----------------------------------------|
    change in me                                                        There's no

E|----------------------------------------|----------------------------------------|
B|---------------------14!----------------|----------------------------------------|
G|------------------------16-14--14^^^----|----------------------------------------|
D|-----------------------------16---------|----------------------------------------|
A|----------------------------------------|----------------------------------------|
E|----------------------------------------|----------------------------------------|
   change in the weather                                                Ain't no

E|----------------------------------------|----------------------------------------|
B|----------------------------------------|----------------------------------------|
G|------------14-16-14---------14-16-14---|-17b18-17b18-16-14-16-14----------------|
D|--------------------16-14-16------------|------------------------16-14----14-----|
A|----------------------------------------|------------------------------16--------|
E|----------------------------------------|----------------------------------------|
     change in me                                                  Ain't no hiding

E|----------------------------------------|----------------------------------------|
B|---------------17-16-14-----------------|----------------------------------------|
G|------------------------16-15\13-13\11--|-11-------------------------------------|
D|----------------------------------------|----------------------------------------|
A|-------16^^-----------------------------|----------------------------------------|
E|----------------------------------------|----------------------------------------|
    from nobody                                                     Nobody's hiding

E|----------------------------------------|----------------------------------------|
B|--------------10b-----------------------|----------------------------------------|
G|--------11-11-----11--------------------|-----9b-9b------------------------------|
D|----------------------------------------|------------11--------------------------|
A|----------------------------------------|----------------------------------------|
E|----------------------------------------|----------------------------------------|
   from me

[Verse 3]
E|-----------12--13b14-14-14-13b14--14----|-14--------12---------------------------|
B|-----14-14------------------------------|---14--------12-14----------------------|
G|----------------------------------------|------------------14-16-----------------|
D|----------------------------------------|------------------------16--------------|
A|----------------------------------------|----------------------------------------|
E|----------------------------------------|----------------------------------------|

E|----------------------------------------|----------------------------------------|
B|---------------------------14-----------|--14------------------------------------|
G|-------------14h15---14h15--------------|----14h15---14-------------14-16-14h15--|
D|----14-16-16------16--------------------|---------16--------14-15-16-----------16|
A|--16------------------------------------|--------------16-16---------------------|
E|----------------------------------------|----------------------------------------|

E|----------------------------------------|----------------------------------------|
B|--15!-14!-12!---------------------------|----------------------------------------|
G|-------------14-11-14-11^^------14-16---|-14-16-14-----14h16-14---14--14--14-----|
D|---------------------------14-16--------|---------16-16--------16---16--16--16---|
A|----------------------------------------|----------------------------------------|
E|----------------------------------------|----------------------------------------|

E|----------------------------------------|----------------------------------------|
B|--------------13b14r13b14---------------|----------------------------------------|
G|-16-------------------------------------|--14-16-14----------14b-16--------------|
D|----------------------------------------|-----------16-14-16---------------------|
A|----------------------------------------|----------------------------------------|
E|----------------------------------------|----------------------------------------|

E|----------------------------------------|----------------------------------------|
B|----14------14--16b17-14--16-14---------|-14b15-14-12--12------------------------|
G|--13--13-16---13--------13-----13\12\11-|------------14--14-13-11\9-11--11-9\----|
D|----------------------------------------|----------------------------------------|
A|----------------------------------------|----------------------------------------|
E|----------------------------------------|----------------------------------------|

E|--------6---6---6-----5--4--------------|-----2^^----2-----2-----2...------------|
B|-----5----------------------------------|--2------2-----2-----2------------------|
G|---4/6----6---6----5--------------------|--3-------------------------------------|
D|----------------------------------------|----------------------------------------|
A|----------------------------------------|----------------------------------------|
E|----------------------------------------|----------------------------------------|
                                                                       I got that

[Verse 4]
E|----------------------------------------|----------------------------------------|
B|----------------------------------------|----------------------------------------|
G|-----------------11-------------11------|----11----11-----11---------------------|
D|-------------------11-14----11----------|-11----11----11-------------------------|
A|----------------------------------------|----------------------------------------|
E|----------------------------------------|----------------------------------------|
  green light baby                                                     I got to keep
                                                             
E|----------------------------------------|----------------------------------------|
B|----------------------------------------|----------------------------------------|
G|------------11!--13!--13h14--15---------|-16p15-13\11-11-14p11--13p11--11^^^-----|
D|----------------------------------------|----------------------------------------|
A|----------------------------------------|----------------------------------------|
E|----------------------------------------|----------------------------------------|
   moving on                                                             I got that

E|-----------------------------7----------|------7---------------------------------|
B|--------------------------(7)---7--10---|--------7---10---7b--7b^^^--------------|
G|-----------------------9b---------------|----------------------------------------|
D|----------------------------------------|----------------------------------------|
A|----------------------------------------|----------------------------------------|
E|----------------------------------------|----------------------------------------|
 green light baby                                                     I got to keep

E|-------------14-----------14-------16---|----------------------------------------|
B|-------12/14----14---14-14--14--14------|------14--14-13--13-----12--------------|
G|----------------------------------------|-13\15--15-----14--14-13--14-11^^^------|
D|----------------------------------------|----------------------------------------|
A|----------------------------------------|----------------------------------------|
E|----------------------------------------|----------------------------------------|
 moving on                                                             I might go

E|----------------------------------------|----------------------------------------|
B|----------------------------------------|----------------------------------------|
G|------------------------13----13\11^^^--|----------------------------------------|
D|--------------------15-----15-----------|----------------------------------------|
A|----------------------------------------|----------------------------------------|
E|----------------------------------------|----------------------------------------|
   out to California                                                  might go down

E|----------------------------------------|----------------------------------------|
B|--------------------------13b14---------|----------------------------------------|
G|----------------------------------------|---14-16-14-----------------------------|
D|----------------------------------------|-------------16-14-16-------------------|
A|----------------------------------------|----------------------------------------|
E|----------------------------------------|----------------------------------------|
   to Georgia I don't know                                           

[Outro]  
E|----------------------------------------|----------------------------------------|
B|----------------------------------------|----------------------------------------|
G|-----------------14b--------------------|-----------14-13------------------------|
D|--------14--16--------16----------------|----14-16--------16-------14--16-......-|
A|----16----------------------------------|-16-------------------16----------------|
E|----------------------------------------|----------------------------------------|


************************************

| /    Slide up
| b    Bend
| \    Slide down
| p    Pull-off
| h    Hammer-on
| r    Release
| (n)  Ghost note

************************************
Suggest correction
Creating personal tab
Creating personal tab
You can edit any tab online and save it as your Personal.

You can edit, replace or remove any tab part or add personal notes – all changes will be seen only by you.

Personal tabs can be accessed anytime from any device, even offline.
Learn more »
comments
print report bad tab
5 comments total. Showing first comments.
0 reply
aig91 4,357 May 07, 2007 07:47 PM

Whoa, that's impressive! You certainly put a lot of effort into your tab. 5 stars )

0 reply
romolo10 10 Jul 05, 2007 09:33 AM

nice tab

0 reply
jptrol 697 Oct 14, 2010 11:52 AM

I recorded an audio demo of the full tab in my profile here :
http://profile.ultimate-guitar.com/jptrol/music/all/play906277

guest
You may want to rate the tab now too:
select rating
Wanna post a correction for this tab? Suggest correction