Oops, an error
Loading. Please wait.

Cocaine Tab

version 2
version 2

Whole song

Interactive

43,755 views 81 this week
3 commentsread comments
1 2 3 4 5
accurate
x 13
add to favorites
launch autoscroll
font size
0
reset
how to read this tab
guitar tuner
Tab Pro tools
  • play this tab
  • loop segment
  • change instrument
  • show fretboard
  • metronome
Autoscroll
slow
fast
+/-
esc
set tempo
stop
Contributor
J J Cale
Cocaine

This is not the Eric Clapton version but the original J J Cale Version

Tablature legend
b= bend
br=bend release
h= hammer on
p= pull of
\= slide down
/= slide up

nat. tuning
overdrive guitar

Intro and main riff

|-------------------|
|-------------------|
|-------------------|
|-11-11-9-11---9----|
|-11-11-9-11---9----|
|-9--9--7-9----7----|

chorus
|------------|----------------|--------------------------------|
|------------|----------------|--------------------------------|
|------------|----------------|--------------------------------|
|-11---------|-9------------7-|-------6------------------------|
|-11---------|-9------------7-|-------6------------------------|
|-9----------|-7------------5-|-------4------------------------|
 she dont lie  she dont lie  she dont lie  cocaine
repeat main riff

Solo
guitar 2 plays main riff
  /  repeat 2X  \
|--------------7---|--9-----11----|-13--14--|-------------7----------|
|--------9-----10b-|--12b---14b---|-16b-17b-|--------9----10b--------|
|-10-----11b-------|--------------|---------|-10-----11b-------------|
|-13b--------------|--------------|---------|-13b--------------------|
|------------------|--------------|---------|------------------------|
|------------------|--------------|---------|------------------------|

|--6------|-------|-------------|------------7---|---6------|-----------|
|--9b-9---|----7--|-------------|------9-----10b-|---9b-9---|-------9\--|
|-----11b-|----9b-|-10--8---10--|-10---11b-------|------11b-|-----------|
|---------|-------|-13b-11b-13b-|-13b------------|----------|-----------|
|---------|-------|-------------|----------------|----------|-----------|
|---------|-------|-------------|----------------|----------|-----------|

|-----------|
|-7----7----|
|-9b---9b---|
|-----------|
|-----------|
|-----------|

Thats all folks
plz rate
comments
print report bad tab
3 comments total.
0 reply
thomasbourne92 wrote on June 10 2009, 10:40 am

Pretty good. I think its right.

0 reply
sebwbes wrote on December 9 2009, 09:13 pm

ye good, its better than the other ones thx for the tab

-1 reply
Mexplosive wrote on December 24 2010, 06:53 am

hey this is very good tab:)
u have the intro on the D,A,E strings... that sounds a bit damped on my guitar:S so i take the tab one string down so i play it on the G,D,A string:) but in the 4th,6th fret.

-----------------------
-----------------------
-----------------------
--11--11---9--11------9 ---> your tab
--11--11---9--11------9
---9---9---7---9------7

----------------------
----------------------
--6---6---4---6------4
--6---6---4---6------4 ---> my version, try it out:)
--4---4---2---4------2
----------------------

Thanks for the tab:) cheers

I want to post or [tab]
guest
You may want to rate the tab now too:
select rating
Please do not post tabs as comments. Select "correction" instead!