Oops, an error
Loading. Please wait.

Me Again Tab

55 views 3 this week
no commentswrite comment
1 2 3 4 5
3 more votes to show rating
add to favorites
launch autoscroll
font size
0
reset
how to read this tab
guitar tuner
Autoscroll
slow
fast
+/-
esc
set tempo
stop
Help us to improve Ultimate-Guitar.com Take our survey!
×
Author
Difficulty
Capo
intermediate
3rd fret
About this tab version
The other tabs are great for the chords - this is for the brief solo at the end of the first chorus. Was this info helpful? Yes No
Capo Fret 3

Starts 1:05 min after first chorus. All fretting relative to capo on 3rd fret.


[Stave 1]

E|--0--------0--1--3/5-----3--5--3-----1p0--------------------------------------------------|
B|--1--1--3---------------------------------3p1p0--1----------0h1p0--1-----0--1/3-----1-----|
G|--2----------------------------------------------------0h2--------------------------0-----|
D|--3---------------------------------------------------------------------------------------|
A|--0---------------------------------------------------------------------------------------|
E|--0---------------------------------------------------------------------------------------|


[Stave 2]

E|-------------------------------------|
B|--3b5--1h3-----3p1-----1p0-----0-----|
G|--------------------2-------2-----0--|
D|-------------------------------------|
A|-------------------------------------|
E|-------------------------------------|


************************************

| h  Hammer-on
| p  Pull-off
| b  Bend
| /  Slide up

************************************
Suggest correction
Give kudos to tab author, rate the tab!
1 2 3 4 5
comments
print report bad tab
guest
You may want to rate the tab now too:
select rating
Wanna post a correction for this tab? Suggest correction