Oops, an error
Loading. Please wait.

Too Deep Tab

version 1
version 1

Whole song

Interactive

1,506 views 10 this week
1 commentread comment
1 2 3 4 5
accurate
x 3
add to favorites
launch autoscroll
font size
0
reset
how to read this tab
guitar tuner
Tab Pro tools
  • play this tab
  • loop segment
  • change instrument
  • show fretboard
  • metronome
×
Best way to learn
"Too Deep"
Autoscroll
slow
fast
+/-
esc
set tempo
stop
Difficulty
novice
Here's the first tab for J Mascis Too Deep from the Several Shades of Why Album. Really 
easy song. Tooked 167hours to tab it out by ear.

e:-------------------------------------------------------|
B:-------------------------------------------------------|
G:-------------------------------------------------------|
D:-----9-------9--------9--------9-----------------------|2x
A:-7-7---7-7-7---7--5-5----5-5-5-------------------------|
E:-------------------------------------------------------|

e:-------------------------------------------------------|
B:-------------------------------------------------------|
G:-------------------------------------------------------|
D:-------------------------------------------------------|2x
A:-----7-------7-------9--------9------------------------|
E:-5-5---5-5-5-----7-7----7-7-7--------------------------|


Ending
e:-------------------------------------------------------|
B:-------------------------------------------------------|
G:-------------------------------------------------------|
D:----9~-------------------------------------------------|
A:----5~-------------------------------------------------|
E:-------------------------------------------------------|
comments
We did not receive enough feedback on this tab! Please rate:
print report bad tab
1 2 3 4 5
1 comment total.
0 reply
andrejmg wrote on March 25 2011, 04:32 pm

I think it's supposed to be like this:

e|-----------------|-----------------|
B|-----------------|-----------------|
G|-----------------|-----------------|
D|-----9-------9---|-----9-------9---|
A|-7-7---7-7-7---7-|-----------------|
E|-----------------|-9-9---9-9-9---9-|

e|-----------------|-----------------|
B|-----------------|-----------------|
G|-----------------|-----------------|
D|-----------------|-----------------|
A|-----7-------7---|-----9-------9---|
E|-5-5---5-5-5---5-|-7-7---7-7-7---7-|

e|-----------------|-----------------|
B|-----------------|-----------------|
G|-----------------|-----------------|
D|-9~~~~~~~~~~~~~~~|~9~~~~~~~~~~~~~~~|
A|-7~~~~~~~~~~~~~~~|~7~~~~~~~~~~~~~~~|
E|-----------------|-----------------|

I want to post or [tab]
guest
You may want to rate the tab now too:
select rating
Please do not post tabs as comments. Select "correction" instead!