Oops, an error
Loading. Please wait.

Back Before You Go Tab

1,562 views 3 this week
no commentswrite comment
1 2 3 4 5
please rate
add to favorites
launch autoscroll
font size
0
reset
how to read this tab
guitar tuner
Autoscroll
slow
fast
+/-
esc
set tempo
stop
Help us to improve Ultimate-Guitar.com Take our survey!
×
Author
Difficulty
Capo
novice
5th fret
Standard Tuning
Capo on the 5th fret
All Notes in relation to Capo
* means Palm mute

Main Riff    D5 D5           C5 C5          G5 G5      G5 G5
e-----------------------------------------------------------]
B-----------------------------------------------------------]
G--2/4--2/4--7--7--2/4--2/4--5--5---2/4-2/4-----------------]
D------------7--7------------5--5-----------5-5-----0--5-5--]
A------------5--5------------3--3-----------5-5-0h2----5-5--]
E-------------------------------------------3-3--------3-3--]

Pre Chorus
Listen for number of strums
      E5 D5 C5 G5
e----------------] x2
B--------3-------]
G--------2--5----]
D-----2--0--5--5-]
A-----2-----3--5-]
E-3-2-0--------3-]

Chorus  
 G G   D D  E E  C C   D D                                                
e----------------------2-2-3--2-2-3----2-2-3--2-2-3-------------]
B----------------------3-3-3--3-3-3----3-3-3--3-3-3-------------]
G------7-7-------5-5---2-2-2--2-2-2----2-2-2--2-2-2-------------]
D-5-5--7-7--2-2--5-5--------------------------------------------]
A-5-5--5-5--2-2--3-3--------------------------------------------]
E-3-3-------0-0-------------------------------------------------]


  G G G D D D  E E E E E E     B B B B B B  C C C C C C 
e---------------------------------------------------------------]
B---------------------------------------------------------------]
G--------7-7-7-----------------4-4-4-4-4-4--5-5-5-5-5-5---------]
D-5-5-5--7-7-7--2-2-2-2-2-2----4-4-4-4-4-4--5-5-5-5-5-5---------]
A-5-5-5--5-5-5--2-2-2-2-2-2----2-2-2-2-2-2--3-3-3-3-3-3---------]
E-3-3-5---------0-0-0-0-0-0-------------------------------------]
                  * * * * *      * * * * *    * * * * *

Outro
  G G  D D  E E  C C                 
e--------------------------]
B--------------------------]
G------7-7-------5-5-------]
D-5-5--7-7--2-2--5-5-------]
A-5-5--5-5--2-2--3-3-------]
E-3-3-------0-0------------]

Suggest correction
What's this?
You can suggest a correction to this tab. Community and Mods will review your correction and vote to approve or reject it.
comments
We did not receive enough feedback on this tab! Please rate:
print report bad tab
1 2 3 4 5
guest
You may want to rate the tab now too:
select rating
Please do not post tabs as comments. Select "correction" instead!