Oops, an error
Loading. Please wait.

By Chance You And I Chords

version 1
version 1

Whole song

1,033,833 views 930 this week
9 commentsread comments
1 2 3 4 5
excellent!
x 90
add to favorites
launch autoscroll
font size
0
reset
transpose
0
reset
display chords
guitar tuner
Tab Pro tools
  • play this tab
  • loop segment
  • change instrument
  • show fretboard
  • metronome
×
Best way to learn
"By Chance You And I"
Autoscroll
slow
fast
+/-
esc
set tempo
stop
Contributor
Capo
3rd fret
Youtube link: http://www.youtube.com/watch?v=RKCVYKzLsjs

Capo 3


[Intro]

           G           D         Am                  C          STRUM (ONCE)
e|----------------------2-2---2-2---------------0------------------------0---|
B|-----3--3----3--3-----3-3---3-3--------1---1-----1----------1---1-----1----|
G|-----0--0----0--0-----2-2---2-2------2---2-----2-----------0---0-----0-----|
D|-----0--0----0--0---0-----0--------2--------------------2-----------2------|
A|-----------2--------------------0---------------------3------------3-------|
E|---3-----------------------------------------------------------------------|

G    G                     D
Hi, girl you just caught my eye
D                        Am
thought I should give it try
              Am
and get your name & your number
 C                    C
go grab some lunch & eat some cucumbers
 G            G
Why, did I say that? 
              D
I don't know why.
         D                            Am
But you're smilin' and it's something' i like 
              Am
on your face, yeah it suits you
C (strum once)                                   Am
girl we connect like we have bluetooth


[Pre-Chorus]

                C
I don't know why
              G
I'm drawn to you 
                       D                    Am
Could you be the other one so we'd equal two?
                  C                 G
and this is all based on a lucky chance
                      D (strum once)
that you would rather add then subtract


[Chorus]

G        D 
  You & I
                Am
could be like sonny & cher
C
honey & bears
G         D
  You & I 
                 Am       
could be like aladdin & jasmine
C
lets make it happen, like


[Instrumental]

G  D  Am  C
G  D  Am  C


[Verse]

G               G 
Hey, how've you been?
                       D
I know that it's been awhile. 
        D                            Am
Are you tired cause you've been on my mind
         Am
runnin' thousand & thousands of miles
 C                  C
Sorry, I know that line's outta style
   G
but you
             G                        D
you look so beautiful on this starry night
              D                           Am
loving the way the moonlight catches your eyes & your smile
 Am
i'm captivated
     C                                  Am
your beauty is timeless, never outdated


[Pre-Chorus]

                C
I don't know why
              G
I'm drawn to you 
                       D                    Am
Could you be the other one so we'd equal two?
                  C                 G
and this is all based on a lucky chance
                      D (strum once)
that you would rather add then subtract


[Chorus]

G        D 
  You & I
                Am
could be like sonny & cher
C
honey & bears, yeah
G         D
 And you & I 
                 Am       
could be like aladdin & jasmine
C
lets make it happen

        G 
e|-----------------|
B|----------3---3--|
G|--------0---0----|   Do this 4 times
D|------0----------|
A|-----------------|
E|--3--------------|

G (strum once)                            D (strum once)
Babe, its been 5 years since that special day
                               Am (strum once)
when I asked you on our first date
    C (strum once)
i guess it's safe to say that,


[Chorus]

G        D
You and I
                Am                       
Are better than sonny and cher
 C                G
honey and bears,yeah
            D
And you and I 
                Am
are better than aladdin & jasmin
C
We made it happen, singing


[Instrumental]

G  D  Am  C
G  D  Am  C (strum once)

             G            D              Am           C (Strum once)
e|--------------------------0p2---------------------------------|
B|----------3---3---------3-------3----------1---1-------1------|
G|--------0---0---------2-------2----------2---2--------0-------|
D|------0-------------0------------------2-------------2--------|
A|-------------------------------------0--------------3---------|
E|--3-----------------------------------------------------------|


[Outro]

       G
Let me say
                            D
you look beautiful on our wedding day
comments
print report bad tab
9 comments total. Showing first comments.
+6 reply
Alex.santander wrote on July 22 2010, 04:53 pm

awesomest tab ever, thanx!! ;D

0 reply
bengyaw wrote on March 4 2011, 09:08 pm

The intro is supposed to be like this.

           G           D         Am                  C          STRUM (ONCE)
----------------------2--2---2--2-----------0---------------------------0------|
-----3--3----3--3-----3--3---3--3------1---1----1-----------1---1------1-------|
-----0--0----0--0-----2--2---2--2-----2---2----2-----------0---0------0--------|
-----0--0----0--0---0------0---------2--------------------2----------2---------|
-----------2-----------------------0---------------------3----------3----------|
---3---------------------------------------------------------------------------|

+3 reply
CaughtByNessie wrote on March 9 2011, 12:50 pm

wasn't it what I wrote?

I want to post or [tab]
guest
You may want to rate the tab now too:
select rating
Please do not post tabs as comments. Select "correction" instead!