Oops, an error
Loading. Please wait.

Midnight Cry Tab

1,204 views 3 this week
no commentswrite comment
1 2 3 4 5
please rate
add to favorites
launch autoscroll
font size
0
reset
how to read this tab
guitar tuner
Autoscroll
slow
fast
+/-
esc
set tempo
stop
Help us to improve Ultimate-Guitar.com Take our survey!
×
Author
Difficulty
novice
-------------------------------------------------------------------------------
                     MIDNIGHT CRY - J. Roddy Walston & the Business
-------------------------------------------------------------------------------
This is the first tab I do, i hope you like it. I do this cause i couldn't find the tabs anywhere
Tabbed by: J. Diaz
E-mail: chuuuye@gmail.com

Tuning: Standard

INTRO:

e|--8------8------8------8---------------------------------------------------|
B|----8------8------8------8-------------------------------------------------|
G|------9------9------9------9-----------------------------------------------|
D|---------------------------------------------------------------------------|
A|---------------------------------------------------------------------------|
E|---------------------------------------------------------------------------|

    VERSE:
    C           Dm                     F
    Now I ain't afraid of the midnight cry, of the midnight cry.
    C           Dm                  F
    And I ain't afraid of beatitude light.
    F
    Bit the blade off the knife.


    PRE-CHORUS
    F
    Everybody gonna wanna talk about it.
    Everybody gonna wanna talk about it.
    C
    They gonna talk real good.
    F
    But not everybody ever gonna get to know.
    But not everybody ever gonna get to know
    G
    Because I don't think you think anybody ever really should.


    CHORUS:
    C                                        F                   C   D  D#  D
    After midnight, after midnight you gonna cry. Cry real good. Uhh uh uuuuuh
    C                                              Dm                  G            C 
    After midnight, after midnight everybody gonna do, everybody gonna do what they should.
                    G                C             
    Everybody gonna do, do what they should.


e|--8------8------8------8---------------------------------------------------|
B|----8------8------8------8-------------------------------------------------|
G|------9------9------9------9-----------------------------------------------|
D|---------------------------------------------------------------------------|
A|---------------------------------------------------------------------------|
E|---------------------------------------------------------------------------|


    VERSE:
    C                          Dm
    I heard there is no saving me.
    F
    Thems a powerful word. Thems a powerful word.
    C                       Dm                          F
    I felt the curse of the tree. Yeah, that fruit just work. Said that fruit just don't work.

    
    PRE-CHORUS
    F
    Everybody gonna wanna talk about it.
    Everybody gonna wanna talk about it.
    C
    They gonna talk real good.
    F
    But not everybody ever gonna get to know.
    But not everybody ever gonna get to know
    G
    Because I don't think you think anybody ever really should.


    CHORUS:
    C                                        F                   C   D  D#  D
    After midnight, after midnight you gonna cry. Cry real good. Uhh uh uuuuuh
    C                                              Dm                  G            C 
    After midnight, after midnight everybody gonna do, everybody gonna do what they should.
                    G                C             
    Everybody gonna do, do what they should.

    FILL
    Am                     Em
    And when the day comes, ain't gonna feel that good
    Am                     G
    And when the day comes, like I said it would.
    C(im not sure)          Am                      F                       G
    That's gonna teach you. That’s gonna teach you. That’s gonna teach you. Ohhhhhhhhhh

    C                                        F                   C   D  D#  D
    After midnight, after midnight you gonna cry. Cry real good. Uhh uh uuuuuh
    C                                              Dm                  G            C 
    After midnight, after midnight everybody gonna do, everybody gonna do what they should.
                    G                C             
    Everybody gonna do, do what they should.
   

    OUTRO:
  C
    Ahhh Ahhh Ahhhhhh Ah Ah
  Dm
    Ah Ah Ah Ahhhhhh Ah Ah
  F                    C
    Uh Uh Uhhhhh Uh Uh Uh

Repeat OUTRO as many time you want :D

Chords
C: 8-10-10-9-8-8
Dm: x-5-7-7-6-5 
F: x-8-10-10-10-8
G: 3-5-5-4-3-3
Am: x-0-2-2-1-0
Em: 0-2-2-0-0-0


Enjoy!

************************************

| /   slide up
| \   slide down
| h   hammer-on
| p   pull-off
| ~   vibrato
| +   harmonic
| x   Mute note
| b   Bend
| pb  Pre-bend
| br  Bend release
| pbr Pre-bend release
| brb Bend release bend

************************************
Suggest correction
Give kudos to tab author, rate the tab!
1 2 3 4 5
comments
print report bad tab
guest
You may want to rate the tab now too:
select rating
Wanna post a correction for this tab? Suggest correction