Oops, an error
Loading. Please wait.

An Occurrence At The River Jordan Tab

1,411 views 6 this week
no commentswrite comment
1 2 3 4 5
3 more votes to show rating
add to favorites
launch autoscroll
font size
0
reset
how to read this tab
guitar tuner
Autoscroll
slow
fast
+/-
esc
set tempo
stop
Help us to improve Ultimate-Guitar.com Take our survey!
×
Author
Difficulty
Capo
novice
2nd fret
Capo 2

Basic Intro
e|------------------------------------------|
B|------------------------------------------|
G|---0h2--0h2-h4-p2-p0--------0---0---------|
D|--(0)-----------------2--0h2----2---------|
A|--------------------------------2---------|
E|--------------------------------0---------|


The verse is kind of strange, he plays multiple strings while still playing the same 
intro progression, but i use these shapes as a basis.

e|-----------------------------------------------------|
B|-----------------------------------------------------|
G|--2----0h2---0h4----2p0----0-------------------------|
D|--0----0-----0------0------2----0h2-0---2------------|
A|--0----0-----0------0------3----3---3---2------------|
E|----------------------------------------0------------|

To sky...

e|--------------------------------------------------------|
B|--------------------------------------------------------|
G|--2----------0h2---0h4----2p0----0----------------------|
D|--0----------0-----0------0------2----------0h2-0---2---|
A|--0----------0-----0------0------3----------3---3---2---|
E|----------------------------------------------------0---|

On far side...            The river Jordan...

There is a vague strumming pattern, so just listen for it.

the Chorus part with the "oooohhhh"s is just a C, and Em repeated a few times with your 
J. Tillman hammer ons and pull offs.
Suggest correction
Give kudos to tab author, rate the tab!
1 2 3 4 5
comments
print report bad tab
guest
You may want to rate the tab now too:
select rating
Wanna post a correction for this tab? Suggest correction