Oops, an error
Loading. Please wait.

Always On Time Tab

version 5
version 5
3,493 views 6 this week
2 commentsread comments
1 2 3 4 5
accurate
x 3
add to favorites
launch autoscroll
font size
0
reset
how to read this tab
guitar tuner
Autoscroll
slow
fast
+/-
esc
set tempo
stop
Help us to improve Ultimate-Guitar.com Take our survey!
×
Contributor
Always On Time - Ja Rule
Tabbed By: Jonathan Mendoza
Tabbed On: 28/2/04

This riff is really easy. It was the first thing I played on the guitar and you
can play around with it. This is the real guitar riff, i mathced it to the song. 

 Guitar Riff        (Through out the whole song)
=============

E|--------x---------------x--------x---------------x---4----x---4h6----4----x
B|---4----x---4h6----4----x---4----x---4h6----4----x--------x---------------x
G|--------x---------------x--------x---------------x--------x---------------x
D|--------x---------------x--------x---------------x--------x---------------x
A|---3----x---3------3----x---3----x---3------3----x---4----x---4------4----x
E|--------x---------------x--------x---------------x--------x---------------x

E|---6----x---6h8----6----| (You can just take out the bass strings for an
B|--------x---------------|  easier version of this song
G|--------x---------------|
D|--------x---------------|
A|---6----x---6------6----|
E|--------x---------------|

This is my first tab! =)
If you have any questions or wanna bag it out, send it to:
ripl_7@msn.com
Good Luck!
comments
We did not receive enough feedback on this tab! Please rate:
print report bad tab
1 2 3 4 5
2 comments total.
0 reply
E-male 1,436 wrote on August 11 2004, 12:00 am

why are u tabbing this while there are already better tabs?
neway, the root notes of the 2nd and 3rd chords are really wrong. other than that, it's not what is really played, but if you wanna play it this way, it's ok

btw saying that this is your first tab doesn't make the tab better.

+1 reply
HuGs_N_KiSsEs 35 wrote on May 30 2008, 10:06 pm

Although the first chord was right you basically butchered the rest of the progression. This is how the end of the progression should go.

E|---4----x---4h6----4----x---6----x---6h8----6----|
B|--------x---------------x--------x---------------|
G|--------x---------------x--------x---------------|
D|---3----x---3------3----x---5----x---5------5----|
A|--------x---------------x--------x---------------|
E|--------x---------------x--------x---------------|

I want to post or [tab]
guest
You may want to rate the tab now too:
select rating
Please do not post tabs as comments. Select "correction" instead!