Oops, an error
Loading. Please wait.

Thug Lovin tab

by Ja Rule
1,368 views 1 this week
2 commentsread comments
1 2 3 4 5
x 5
add to favorites
×
Save as Personal and add changes to this tab that will be seen only by you. Learn more ›
×
You can save this tab as Personal to edit and correct it or add notes. All changes will be seen only by you. Learn more »
launch autoscroll
font size
0
reset
how to read this tab
guitar tuner
edit
Autoscroll
slow
fast
+/-
esc
set tempo
stop
Artist: Ja Rule
Song:   Thug Lovin
Album:  The last temptation
Tuning:EADGBe

This is basically the entire riff repeated throughout the song

e|-----------------------------------------------------------------|
B|-----------------------------------------------------------------|
G|-----------------------6h8---------------------------------------|
D|----------------------------6h8-------8--------6h8~~~~-----------|
A|----------6--6h8~~~~~------------6h8-----8--6----------6--6h8~~~~|
E|----6--9---------------------------------------------------------|

Then repeat

| h hammer-on
| ~ vibratto

            
            
Suggest correction
Creating personal tab
Creating personal tab
You can edit any tab online and save it as your Personal.

You can edit, replace or remove any tab part or add personal notes – all changes will be seen only by you.

Personal tabs can be accessed anytime from any device, even offline.
Learn more »
comments
print report bad tab
2 comments total.
0 reply
jacobmarks1996 10 Jul 09, 2017 06:48 AM

e----------------------------------------------------------
B----------------------------------------------------------
G--------------------6h8h6----------------------------
D-------------------------------8--8--------8-----------
A---------6--6h8-------------------8--6----6--6h8
E--6--9--------------------------------------------------

corrected version

guest
Wanna post a correction for this tab? Suggest correction