Oops, an error
Loading. Please wait.

Bad Things tab

version 1
version 1

Whole song

Interactive

Video

157,770 views 108 this week
3 commentsread comments
1 2 3 4 5
x 20
add to favorites
×
Save as Personal and add changes to this tab that will be seen only by you. Learn more ›
×
You can save this tab as Personal to edit and correct it or add notes. All changes will be seen only by you. Learn more »
launch autoscroll
font size
0
reset
how to read this tab
guitar tuner
backing track
0:00
0:00
edit
Autoscroll
slow
fast
+/-
esc
set tempo
stop
Author
Unregistered
[Intro]
E ---0-2-0h3b4-3-0-- (last E should be a downstroke)

The Em bit is an upbeat rhythm (strum up, then down, then up) kinda like LaGrange. 

    u d u   u d u
e|--------------------|
B|--------------------|
G|--------------------|
D|--2-2-2---2-2-2-----| x Ad Nauseum
A|--2-2-2---2-3-2-----|
E|--0-3-0---0-0-0-----|

(The Em sounds like it always transistions after "power C" bit.)

Em            B7              Em  
When you came in the air went out
Em         B7            Em
And every shadow filled up with doubt
Am                   Em (single Em)        B7            Em (back to riff)
I don't know who you think you are but before the night is through
        B7                Em
I wanna do bad things with you

   d u d u d u d   u  d
e|-0-0-0-0-0-0-----------|
B|b-5---3---0------------|
G|g-------------2r0------| (I quarter-bend the 2 before releasing)
D|d-----------------2--2-| 
A|a--------------------2-| (back to Em riff)
E|---------------------0-|

Em          B7                 Em
I'm the kind to sit up in his room
Em          B7                 Em
Heart sick an' eyes filled up with blue
Am                   Em                   B7                Em
I don't know what you've done to me but I know this much is true
Em       B7                Em
I wanna do bad things with you...okay

[Solo]
e|----------------------------------------------------------|
B|--------------------------------10b12-10r8----------------| 
G|----4b5r4-2-------------------------------9---------------| 
D|----------------------------------------------------------| 
A|----------------------------------------------------------| 
E|----------------------------------------------------------| 

 (I'm not entirely sure this phrase is 100% but it's in key and sounds close)
e|----------------------------------------------------------| 
B|----------------------------------------------------------| 
G|---9-8-9-11-9-11-12-11-12-12b14-12-9----------------------| 
D|----------------------------------------------------------|
A|----------------------------------------------------------| 
E|----------------------------------------------------------| 

e|----------------------------------------------------------| 
B|-5-5--3-0-------------------------------------------------| 
G|----------2r0-3r2r0-2--3r2r0-2-0--------------------------| 
D|---------------------------------2-0----------------------| 
A|-------------------------------------2-0------------------| 
E|-----------------------------------------3-2-0------------| 

Em            B7              Em
When you came in the air went out
Em            B7              Em
And all those shadows there are filled up with doubt
Am                   Em                   B7                Em
I don't know who you think you are but before the night is through
Em       B7                Em
I wanna do bad things with you
I wanna do real bad things with you


************************************

| h  Hammer-on
| b  Bend
| g  Grace note
| r  Release

************************************

            
            
Suggest correction
Creating personal tab
Creating personal tab
You can edit any tab online and save it as your Personal.

You can edit, replace or remove any tab part or add personal notes – all changes will be seen only by you.

Personal tabs can be accessed anytime from any device, even offline.
Learn more »
comments
print report bad tab
3 comments total.
0 reply
freakyjoe69 10 Aug 09, 2009 09:26 AM

awesome, finish it!!

0 reply
otern 10 Feb 28, 2010 05:06 PM

nice but there is a bridge before he sings "I don't know who you think you are but before the night is through" trying to figure it out:P

0 reply
gvantassel 10 Sep 05, 2014 02:43 PM

Can anyone explain to a novice exactly how to interpret and play the solos?

guest
Wanna post a correction for this tab? Suggest correction