Oops, an error
Loading. Please wait.

1788 Tab

25 views 3 this week
no commentswrite comment
1 2 3 4 5
3 more votes to show rating
add to favorites
launch autoscroll
font size
0
reset
how to read this tab
guitar tuner
Autoscroll
slow
fast
+/-
esc
set tempo
stop
Help us to improve Ultimate-Guitar.com Take our survey!
×
Author
Difficulty
Capo
intermediate
3rd fret
[Intro]
    D            G          D          A          D            G          D    A   D
e|--2------2-------3-----3----2--3/5------------------2----------3----------------------2---|
B|-----3-----3-----3---3------------------2--0h2--------3--------3-3--------3----2----3--3--|
G|-------2-----------4--------------------2--2------2----2-----------4/3----2----2----2---2-|
D|--0---------0-------------0---------------------0-------0---------------0---------0-------|
A|-------------------------------------0---------------------------------------0------------|
E|---------------3---------------------------------------------3----------------------------|

[Verse]
   D                         G                     D                        A
e|----------------2---------------------3-------|-------------------------------------------------|
B|-------------3----3---------------4-----4-----|-------------3-------3-------------2-------0h2---|
G|-------------2-------2------------5-------5/3-|-------------2--2--------2---------2-------2-----|
D|-0--------------------------------------------|--0----------------------------------------------|
A|----------------------------------------------|---------------------------0---------------------|
E|---------------------------3------------------|-------------------------------------------------|
  Ta pierwsza morska podróż do Australii          Łotry przy burtach prostytutki w kojach

   D                   G                       D
e|----------------2-------------2-----------|---------------------1----------------0-------|
B|-------------3---3-------------2----------|-----------------3------2---------2----2------|
G|-------------2-----2--------3---3---------|-----------------2----------------2-----2-----|
D|-0----------------------------------------|----0------------------------------------2----|
A|------------------------------------------|-------------------------------0--------------|
E|---------------------3--------------------|----------------------------------------------|
  Wszyscy się bali, łkali i rzygali           W drodze do raju  przewrot - ności  Twoja

   Bm                           Em                    Bm                        F#m
e|---------------------2---------------------0------|-----------------2---------------------2-----|
B|-------------3---------3-------------0-------0----|-------------3-----3---------------2---------|
G|-------------4-----------4-----------0---------0--|-------------4-------4-------------2---------|
D|--------------------------------------------------|---------------------------------------------|
A|-2------------------------------------------------|-2-------------------------------------------|
E|------------------------------0-------------------|---------------------------2-----------------|
  Panie coś w jeszcze nam nieznanych planach        Miał czarne diabły  strzegące  wybrzeży

    G          A             D            G                    A            Bm
e|---------3-------------0--------------|---------------3--------------0-----------------2------|
B|-------3--3---------2----------3------|-------------3----3---------2---2-------------3--3-----|
G|-------4---4-----2-----------------2--|-------------4--------------2-----------------4---4----|
D|---------------------------0----------|-------------------------------------------------------|
A|-------------0------------------------|----------------------0------------2-------------------|
E|--3-----------------------------------|-3-----------------------------------------------------|
 Edenu który przeznaczyłeś dla nas    A w który nikt, prawdę mówiąc,      nie wierzył

   G          D          A          
e|------3--------2--3/5---------------|
B|----3---3------3-----------2--0h2---|
G|----4-----4----------------2--2-----|
D|------------0-----------------------|
A|------------------------0-----------|
E|-3----------------------------------|

************************************

| /  Slide up
| h  Hammer-on

************************************
Suggest correction
Give kudos to tab author, rate the tab!
1 2 3 4 5
comments
print report bad tab
guest
You may want to rate the tab now too:
select rating
Wanna post a correction for this tab? Suggest correction