Oops, an error
Loading. Please wait.

Bendito Amor Tab

84 views 1 this week
no commentswrite comment
1 2 3 4 5
3 more votes to show rating
add to favorites
launch autoscroll
font size
0
reset
how to read this tab
guitar tuner
×
Best way to learn
"Bendito Amor"
Autoscroll
slow
fast
+/-
esc
set tempo
stop
esta es una cancion muy bonita por esto la mando
cualkier duda mi correo es jsua_14@

Bendito Amor (Gm)
Jaci Velásquez

Intro: Gm  Cm  D7  Gm

---------------------------5-6-5h6p5---------------
-6/8-8-6-4/6-------------8-----------10/8-------------
-------------8-7-8/10-8----------------------8h10p8-7---
------------------------------------------------------
-------------------------------------------------
------------------------------------------------------

------------------------3---3-10----------------
----------------3-----------3--8-----------
--3h5-5/7-----3---3---3---3----------------------
------------------------------------------------------
--------------------5-----------------------------
------------3------------------------------------------

Gm                Cm
   Como olvidar el momento
D7                   Gm    G7
   Como borrar de mi vida
                  Cm
Las cosas que me decías
         F                    Bb
Como sentir tus besos en mi mejilla
D7          Gm
Me enloquecían
                  Cm
Como hago para olvidarte
            D7
Dejar de amarte?
 Bb/D  Gm
Ohohuoh
                   Cm
Como vivir sin tus pasos

--------------------------------------------------------
-----------------------------------------------
------------------------------5-7-7h8-8p7-5/7---
-------------------------------------------------

D7                Gm    G7
Y retenerte en mi alma

--------------------------3-5-6-8-8/10-(10)-------------
------------------------3----------------------
--------------------------------------------------
-------------------------------------------------
                   Cm            F
Mirar desde mis entrañas tu corazón


-------------------------8h10p8-6h8p8-5h6p6------------
-----------------------------------------------
--------------------------------------------------
-------------------------------------------------

               Bb      D7         Gm
Recuperar mis mañanas sin tus mañanas

--------------------------------------------------------
--------------------------------------------10h11p10-8
----------------------------------10/8-8/10-------
-------------------------------------------------
                    Cm
Como hago para olvidarte
            D7
Dejar de amarte

----------------------------------8-10-10/11-11p10-8-8/10
-------------------------------11--------------
--------------------------------------------------
-------------------------------------------------


Coro:
Gm        Cm
Bendito amor
           F
Yo ya no quiero
             Bb
Volverte a amar
D7         Gm
Ver otro cielo
       Cm
Recuperar
                           D7                     Gm
Todas las horas que te regalé cuando estaba a tu lado
         Cm
Bendito amor

----------------------------------
-----3-4-6-4-3---3-3h4-------------------------------
---5-----------3------------------------------------
-------------------------------------------------
            F
Yo ya no quiero
         Bb
Ni respirar
D7         Gm
Tu mismo aire
       Cm
Recuperar
                            D7
En otra vida tratar de olvidar tus recuerdos

---------6-8-8/10-----------------------
-------8--------------------------------------
---------------------10-8-7---------------------------
-------------------------------------------------

Bb/D   Gm
Que arden

--------6-8-8h9p8-6-----------------------
--6-8-9-------------9-8---------------------------
--------------------------------------------------
-------------------------------------------------

Solo: Cm D7 Gm G7 Cm F Bb D7 Gm

--------------------------5/6----------------------------
------------------------------8-----6-6h8--6---------
------------5h7-5-3h5-----------7-8---------------------
---5-5-5-7-8-----------------------------------------
-------------------------------------------------
------------------------------------------------------


--------------------------------------------
--6-4---1-3-4-4/6--6-4-3-1--------------------------
------3--------------------3-5-5/7--------------------
------------------------------------------------------
-------------------------------------------------
------------------------------------------------------


-----------8/10-10-10-10-10-10--13-13-13-11h13p11-----
---8-10-11---------------------------------------
-7--------------------------------------------
----------------------------------------------


--------------------------------------------------
--10h11-10-8-----------------------------------------------
-------------10-8-8h10p8-7-5-3-5-7-8-10-8-7------------
------------------------------------------------
-----------------------------------------------


                          Cm           F
Umhnmm Las cosas que me decías como sentir tus besos en mi

--------------8-10--10-10-11---------------------
--------10-11----------------11/13--------------
--10/12------------------------------------
--------------------------------------
Bb       D7        Gm
mejilla me enloquecían
               Cm               D7    Gm
Como para olvidarte dejar de amarte

-------------------------------------8/10-10-
------------------------------8-10-11-------
--------------------------------------

         Cm
Bendito amor

-11-10-8---------------------------------
---------11-10-8-------------------------
------------------------------------
------------------------------------

            F
Yo ya no quiero

-10-8-11-10-10/11----------------------
------------------------
----------------------
----------------------

          Bb
Volverte amar
D7        Gm
Ver otro cielo
      Cm
Recuperar
                         D7                    Gm
Todas las horas q te regale cuando estaba a tu lado

------------------------------------------
-10h11-10--8-8----------10h11-10--8-8--------------------
----------------------------------------

        Cm
Bendito amor

------------8-8h10-10--------------------
-8h10-10/11------------------------------
------------------------------------
------------------------------------
             F
Yo ya no quiero

-10-8-11-10-10/11----------------------
------------------------
----------------------
----------------------

        Bb
Ni respirar

----------8-8/10-----------------------------
--8-10-11------------------------------------
---------------------------------------
----------------------------------------

D7          Gm
Tu mismo aire
       Cm
Recuperar

----------------------------------
--10-8------------------------------
-------10-8-10-10/12------------------------
---------------------------------

                           D7
En otra vida tratar de olvidar tus recuerdos
Bb/D    Gm
Olvidarte


Fine:

-13-13-11-11-10-10h11p10--8-8-6-6-5-5h6p5--------3-5-6-6/8
-------------------------------------------3-4-6-------
------------------------------------------------
------------------------------------------------------
-------------------------------------------------
------------------------------------------------------
           Gm
Mi bendito amor
                 harmonicos
---(3h5/6)--3---------------<17>-------------------
-----------3-----------<17>-<17>----------------------
---------3----------<17>----<17>-----------------------
-----------------<17>------------------------------------
-----------------------------------------------------
--3---------------------------------------------------
Suggest correction
Give kudos to tab author, rate the tab!
1 2 3 4 5
comments
print report bad tab
guest
You may want to rate the tab now too:
select rating
Wanna post a correction for this tab? Suggest correction