Oops, an error
Loading. Please wait.

Llegar A Ti Tab

55 views 1 this week
no commentswrite comment
1 2 3 4 5
3 more votes to show rating
add to favorites
launch autoscroll
font size
0
reset
how to read this tab
guitar tuner
×
Best way to learn
"Llegar A Ti"
Autoscroll
slow
fast
+/-
esc
set tempo
stop
Intro:     

E |------------------------------------------------------|
B |-------3/4--/6------8/9--8----------------------------|
G |--3/5-----------------------8-------------------------|
D |-------------------------------8-8/10-----------------|
A |------------------------------------------------------|
E |------------------------------------------------------|


Solo:
            
E |-----------------------------------|--------------------------------
B |-----------------------------------|--------------------------------
G |-----------------------------------|--------------------------------
D |--8/10--(10)---8-10-10/11--10-6----|-8/10----8/10-11-10-8-6/8-6-----
A |--------------------------------6--|----------------------------8-6-
E |-----------------------------------|--------------------------------


E |--------|----18/20-18-----------------------------|-----------------
B |--------|-16----------16^-16----------21/22\21----|-------------13^-
G |--------|----------------------20-22-----------17-|-------13-15-----
D |-6-5/6--|-----------------------------------------|-13-15-----------
A |--------|-----------------------------------------|-----------------
E |--------|-----------------------------------------|-----------------


E |---------------------------|----18/20-15/16------------------------|
B |-13-16-13------------------|-16-------------16/18------------------|
G |----------15-13---13/15----|----------------------13/15------------|
D |------------------------13-|----------------------------13/15------|
A |---------------------------|----------------------------------11---|
E |---------------------------|---------------------------------------|


espero que les guste, este solo me encanta..
Suggest correction
Give kudos to tab author, rate the tab!
1 2 3 4 5
comments
print report bad tab
guest
You may want to rate the tab now too:
select rating
Wanna post a correction for this tab? Suggest correction