Oops, an error
Loading. Please wait.

Oh No Tab

40 views 9 this week
no commentswrite comment
1 2 3 4 5
2 more votes to show rating
add to favorites
launch autoscroll
font size
0
reset
how to read this tab
guitar tuner
Autoscroll
slow
fast
+/-
esc
set tempo
stop
Help us to improve Ultimate-Guitar.com Take our survey!
×
Author
Difficulty
[Intro]
e|---------------------------------------------------------------------------|
B|---------------------------------------------------------------------------|
G|---------------------------------------------------------------------------| X2
D|---------------------------------------------------------------------------|
A|---------------------------------------------------------------------------|
E|-5--5--5--5--5--5--5--5--5--5--5--5--4--4--4--4--4--4--4--4--4--4--4--4----|

[Verse]
I don't want to happen.
e|---------------------------------------------------------------------------|
B|---------------------------------------------------------------------------|
G|---------------------------------------------------------------------------| X2
D|---------------------------------------------------------------------------|
A|---------------------------------------------------------------------------|
E|-5--5--5--5--5--5--5--5--5--5--5--5--4--4--4--4--4--4--4--4--4--4--4--4----|

e|---------------------------------------------------------------------------|
B|---------------------------------------------------------------------------|
G|---------------------------------------------------------------------------| X2
D|---------------------------------------------------------------------------|
A|-4--4--4--4--4--4--4--4--4--4--4--4--6--6--6--6--6--6--6--6--6--6--6--6----|
E|---------------------------------------------------------------------------|

[Chorus]
Oh no, you made it home again.
e|---------------------------------------------------------------------------|
B|---------------------------------------------------------------------------|
G|---------------------------------------------------------------------------| X2
D|---------------------------------------------------------------------------|
A|-4--4--4--------------2-----2--2-------------------------------------------|
E|----------2--2--2--2-----4--------0--0--2--4--2----------------------------|

e|---------------------------------------------------------------------------|
B|---------------------------------------------------------------------------|
G|---------------------------------------------------------------------------| 
D|---------------------------------------------------------------------------|
A|-4--4--4--4--2--1-----------1--1--1----------------------------------------|
E|-------------------4--2--2-----------4--2----------------------------------|

e|---------------------------------------------------------------------------|
B|---------------------------------------------------------------------------|
G|---------------------------------------------------------------------------| 
D|---------------------------------------------------------------------------|
A|-4--4--4--4--2--1----------------------------------------------------------|
E|-------------------4--2--2--2--2--2--4-------------------------------------|

[Post-Chorus]
Do you want to try it anymore?
e|---------------------------------------------------------------------------|
B|---------------------------------------------------------------------------|
G|---------------------------------------------------------------------------| X2
D|---------------------------------------------------------------------------|
A|--------------------4--4-----4--------------------------2--2--2------------|
E|--4--4--4--4--4--4--------4-----4--4--1--2--2--1--2--2-----------2--4------|

e|---------------------------------------------------------------------------|
B|---------------------------------------------------------------------------|
G|---------------------------------------------------------------------------|
D|---------------------------------------------------------------------------|
A|----------------------6--6--6--6--6--6--6--3-------------------------------|
E|-4--4--4--4--4--4--4-------------------------------------------------------|

[Chorus]
Oh no, you made it home again.
e|---------------------------------------------------------------------------|
B|---------------------------------------------------------------------------|
G|---------------------------------------------------------------------------| X2
D|---------------------------------------------------------------------------|
A|-4--4--4--------------2-----2--2-------------------------------------------|
E|----------2--2--2--2-----4--------0--0--2--4--2----------------------------|

e|---------------------------------------------------------------------------|
B|---------------------------------------------------------------------------|
G|---------------------------------------------------------------------------| 
D|---------------------------------------------------------------------------|
A|-4--4--4--4--2--1-----------1--1--1----------------------------------------|
E|-------------------4--2--2-----------4--2----------------------------------|

e|---------------------------------------------------------------------------|
B|---------------------------------------------------------------------------|
G|---------------------------------------------------------------------------| 
D|---------------------------------------------------------------------------|
A|-4--4--4--4--2--1----------------------------------------------------------|
E|-------------------4--2--2--2--2--2----------------------------------------|

[Verse]
I don't want to happen.
e|---------------------------------------------------------------------------|
B|---------------------------------------------------------------------------|
G|---------------------------------------------------------------------------| 
D|--------------------------------6--6--4--4---------------------------------|
A|--------------------------------------------7--7--6--6--4-X16--6-X16-------|
E|-5-X16--4--4--4--4--4--4--4--4---------------------------------------------|

[Bridge]
e|---------------------------------------------------------------------------|
B|---------------------------------------------------------------------------|
G|---------------------------------------------------------------------------| X2
D|-------------------------1--1--1--1----------------------------------------|
A|-4--4--4--4----------------------------------------------------------------|
E|-------------2--2--2--2--------------4--4--4--4----------------------------|

e|---------------------------------------------------------------------------|
B|---------------------------------------------------------------------------|
G|---------------------------------------------------------------------------| 
D|---------------------------------------------------------------------------|
A|-------------4--4--4--4--2--1-----------1--1--1----------------------------|
E|-4--4--4--4--------------------4--2--2-----------4--2----------------------|

e|---------------------------------------------------------------------------|
B|---------------------------------------------------------------------------|
G|---------------------------------------------------------------------------| 
D|---------------------------------------------------------------------------|
A|-4--4--4--4--2--1----------------------------------------------------------|
E|-------------------4--2--2-X16----------------------=----------------------|

[Bridge - Lead Guitar]
e|----------------------------------6-6--3--4--------------------------------|
B|----------------5----------------------------------------------------------|
G|-3--3--3--3--4-----4--6--3--6--3-------------------------------------------|
D|---------------------------------------------------------------------------|
A|---------------------------------------------------------------------------|
E|---------------------------------------------------------------------------|


e|-4--6--7--4--7-----------------------------4-----4-----4-----4-------------|
B|----------------4--------4--7--7--4--7--4-----4-----4-----4-----4----------|
G|-------------------6--6----------------------------------------------------|
D|---------------------------------------------------------------------------|
A|---------------------------------------------------------------------------|
E|---------------------------------------------------------------------------|

e|---------------------------------------------------------------------------|
B|-------------5--5--5-----------X2------------------------------------------|
G|-3--3--4--6-----------6--4--3------3--3--4--3--4--3--3--5------------------|
D|---------------------------------------------------------------------------|
A|---------------------------------------------------------------------------|
E|---------------------------------------------------------------------------|

[Outro]
Do you want to try it anymore?
e|---------------------------------------------------------------------------|
B|---------------------------------------------------------------------------|
G|---------------------------------------------------------------------------|
D|---------------------------------------------------------------------------|
A|--------------------4--4-----4--------------------------2--2---------------|
E|--4--4--4--4--4--4--------4-----4--4--1--2--2--1--2--2--------4------------| 
Suggest correction
Give kudos to tab author, rate the tab!
1 2 3 4 5
comments
print report bad tab
guest
You may want to rate the tab now too:
select rating
Wanna post a correction for this tab? Suggest correction