Oops, an error
Loading. Please wait.

Secrets Tab

25 views 6 this week
no commentswrite comment
1 2 3 4 5
2 more votes to show rating
add to favorites
launch autoscroll
font size
0
reset
how to read this tab
guitar tuner
Autoscroll
slow
fast
+/-
esc
set tempo
stop
Help us to improve Ultimate-Guitar.com Take our survey!
×
Author
Difficulty
intermediate
Artist: Jack and Eliza
Song: Secrets

[Intro]

1st Guitar
e|---------------------------|
B|---------------------------|
G|---------------------------|
D|---------------------------|
A|---------------------------|
E|--7--7-7-9-7-4--2-4-7-4-2--|

2nd Guitar
e|--7--7--7--7--4--4--4--2---|
B|--7--7--7--7--4--4--4--2---|
G|--8--8--8--8--4--4--4--3---|
D|--9--9--9--9--6--6--6--4---|
A|--9--9--9--9--6--6--6--4---|
E|--7--7--7--7--4--4--4--2---|

[Verse]

1st Guitar
e|---------------------------|
B|---------------------------|
G|---------------------------|
D|---------------------------|
A|---------------------------|
E|--7--7-7-9-7-4--2-4-7-4-2--|

2nd Guitar
e|--7--7--7--7--4--4--4--2---|
B|--7--7--7--7--4--4--4--2---|
G|--8--8--8--8--4--4--4--3---|
D|--9--9--9--9--6--6--6--4---|
A|--9--9--9--9--6--6--6--4---|
E|--7--7--7--7--4--4--4--2---|

1st Guitar
e|---------------------------|
B|---------------------------|
G|---------------------------|
D|---------------------------|
A|---------------------------|
E|--7--7-7-9-7-4--2-4-7-4-2--|

2nd Guitar
e|--9--9--9--9--9--9--9--9---|
B|--9--9--9--9--9--9--9--9---|
G|--10-10-10-10-10-10-10-10--|
D|--11-10-10-11-11-11-11-11--|
A|--11-11-11-11-11-11-11-11--|
E|--9--9--9--9--9--9--9--9---|

[Chorus]

1st Guitar
e|---------------------------|
B|---------------------------|
G|---------------------------|
D|---------------------------|
A|---------------------------|
E|--7--7-7-9-7-4--2-4-7-4-2--|

2nd Guitar
e|--7--7--7--7--4--4--4--2---|
B|--7--7--7--7--4--4--4--2---|
G|--8--8--8--8--4--4--4--3---|
D|--9--9--9--9--6--6--6--4---|
A|--9--9--9--9--6--6--6--4---|
E|--7--7--7--7--4--4--4--2---|
Suggest correction
Give kudos to tab author, rate the tab!
1 2 3 4 5
comments
print report bad tab
guest
You may want to rate the tab now too:
select rating
Wanna post a correction for this tab? Suggest correction