Oops, an error
Loading. Please wait.

Being Me Chords

121 views 1 this week
no commentswrite comment
1 2 3 4 5
2 more votes to show rating
add to favorites
launch autoscroll
font size
0
reset
transpose
0
reset
simplify chords
display chords
guitar tuner
Autoscroll
slow
fast
+/-
esc
set tempo
stop
Help us to improve Ultimate-Guitar.com Take our survey!
×
Author
Difficulty
Capo
novice
2nd fret
Tuning: Standard
Capo 2nd Fret (chords are relative to Capo)


Chords:
     Am  B/G   C    G    F    Em
E----0----3----0---------1----0------
B----1----3----1----0----1----0------
G----2----0----0----0----2----0------
D----2----0----2----0----3----2------
A----0----2----3----2----3----2------
E-------------------3----1----0------


Intro Picking:
E-------------------------0---------------------------------------------3--------------
B----1-----------1--------------------1----------1----------1-------3------------------
G-----------2--------------------2----------------------2------------------------------
D---------2----------2---------2---------2------------2--------2-----------------------
A----0---------0----------0---------0------------0--------0---------0---2--------------
E--------------------------------------------------------------------------------------

E----0--------------------------3------------
B---------------1-------------------3--------
G----------0---------------------------------
D--------2--------2-----x3-------------------
A----3--------3-----------------3---2--------
E--------------------------------------------


Am      B/G  C      B/G


-VERSE-
Am                                                     B/G     C
Tell me all about you, tell me all about the struggles of your life
                B/G      Am                                           C        B/G
Everybody has a story to tell and I can almost see yours through your eyes
        Am                                                       B/G      C
Well if that's your biggest secret then I'm sorry but I will not tell you mine
                     B/G   Am                                    G
Seems like you had a bumpy ride and I must say as nice as get to know
       Am        G             Am
Please don't get close, please don't


-CHORUS-
                         F                       Am
'Cause I'm good at being me, just cruising on my own
                       F                           Am
I've never been nobody else and it's all I've ever known
                      F                          Am
I know exactly what I want, I know exactly who I am
                       F                         Am
I'm only good at being me and I hope you'll understand


-VERSE-
Am                                                           C
Staring at your lips as you're telling me a story 'bout your friends
                                Am                                    C
Haven't heard a single word you said - guess you can't help me, beautiful
      Am                                                                    C
And I like the way you laugh and move, I like spending my time with you somehow
                           Am                           G
Feels like I know you all along and it's nice to get to know
       Am        G             Am
Please don't get close, please don't


-CHORUS-
                         F                       Am
'Cause I'm good at being me, just cruising on my own
                       F                           Am
I've never been nobody else and it's all I've ever known
                      F                          Am
I know exactly what I want, I know exactly who I am
                       F                         Am
I'm only good at being me and I hope you'll understand


-BRIDGE-
        Em                                              Am
And I'm sorry that I hurt you but, hey, life is for the living, yeah
   Em                                                             Am
We ran and sang and cried and danced, so isn't that worth some forgiving, yeah?


-CHORUS-
                         F                       Am
'Cause I'm good at being me, just cruising on my own
                       F                           Am
I've never been nobody else and it's all I've ever known
                      F                          Am
I know exactly what I want, I know exactly who I am
                       F                         Am
I'm only good at being me and I hope you'll understand
Suggest correction
Give kudos to tab author, rate the tab!
1 2 3 4 5
comments
print report bad tab
guest
You may want to rate the tab now too:
select rating
Wanna post a correction for this tab? Suggest correction