Oops, an error
Loading. Please wait.

Surprise Yourself chords

21,106 views 195 this week
2 commentsread comments
1 2 3 4 5
x 34
add to favorites
×
Save as Personal and add changes to this tab that will be seen only by you. Learn more ›
×
You can save this tab as Personal to edit and correct it or add notes. All changes will be seen only by you. Learn more »
launch autoscroll
font size
0
reset
transpose
0
reset
display chords
guitar tuner
edit
Autoscroll
slow
fast
+/-
esc
set tempo
stop
Strumming
There is no strumming pattern for this song yet. and get +5 IQ
[Intro] 

Am G F C   x2

[Intro/Outro riff]
         
E|-------------------------------------------|-------------------------------------------|
B|--------------------11h13--11--------------|----------------------8--------------------|
G|--10h12--15--15--12------------12----------|----------8h10--8--8-----10--8--8----------|
D|-------------------------------------------|-------------------------------------------|
A|-------------------------------------------|-------------------------------------------|
E|-------------------------------------------|-------------------------------------------|
         

[Verse]

Am        G    F      C
Speak and open up your mind
Am            G           F          C
It’s something you should do all the time
Am        G      Em       F
Keep exploring, seek and find
Am            G        F       C
You know you might surprise yourself

Am        G       F       C
Talk without the tape to hold
Am               G         F         C
The doubts that should embrace your hope
Am           G     Em        F
The calm and chaos of your soul
Am            G        F      C
You know you might surprise yourself


[Chorus]

Ooo..
C Am G F C
Am G Em F
Am G F C


[Verse]

Am      G         F       C
Take a pen and write this down
Am        G          F       C
Draw something that can’t be found
Am        G      Em      F
Learn to walk again somehow
Am             G       F       C
You know you might surprise yourself


[Chorus]

Ooo..
C Am G F C
Am G Em F
Am G F C


[Verse]

Am      G      F    C
Lover, if you only knew
Am              G        F         C
The times that train has fooled me too
Am            G       Em      F
And tears me from a place I know
Am           G     F     C
It helps me to surprise myself

Am            G      F       C
You know you can surprise yourself
Am         G      F        C
So let go and surprise yourself


[Chorus]
Ooo..
C Am G F C
Am G Em F
Am G F C

[Outro]

Am G F C

            
            
Suggest correction
Creating personal tab
Creating personal tab
You can edit any tab online and save it as your Personal.

You can edit, replace or remove any tab part or add personal notes – all changes will be seen only by you.

Personal tabs can be accessed anytime from any device, even offline.
Learn more »
comments
print report bad tab
2 comments total.
0 reply
jamierwatson.uk 12 Aug 10, 2016 11:30 AM

Chords seem perfect! Love this song, had fun playing it!

0 reply
cameronkingslay 29 Dec 20, 2016 08:18 AM

great job with the chords! However, I actually would suggest this for the intro/outro riff...

E|-------------------------------------------|----------------------------------
B|--------------------11h13--11--------------|----------------------------------
G|--10h12--15--15----------------12----------|----------8h10--8--8--10h12--10--8
D|-------------------------------------------|----------------------------------
A|-------------------------------------------|----------------------------------
E|-------------------------------------------|----------------------------------

guest
You may want to rate the tab now too:
select rating
Wanna post a correction for this tab? Suggest correction