Oops, an error
Loading. Please wait.

Weathered chords

version 2
version 2

Whole song

Interactive

17,113 views 138 this week
4 commentsread comments
1 2 3 4 5
x 24
add to favorites
×
Save as Personal and add changes to this tab that will be seen only by you. Learn more ›
×
You can save this tab as Personal to edit and correct it or add notes. All changes will be seen only by you. Learn more »
launch autoscroll
font size
0
reset
transpose
0
reset
simplify chords
display chords
guitar tuner
edit
Autoscroll
slow
fast
+/-
esc
set tempo
stop
Author
Strumming
There is no strumming pattern for this song yet. and get +5 IQ
Chord shapes (Jack mostly doesn’t play the parenthesised notes):

    C     F/C     Am     F    C/E    FG     GFsus2   CC/E’
e|-(8)----(8)----(5)----(3)----x----(8)----(3)----x----(1)----x----(0)-|
B|-(8)----(8)----(5)----(3)----8-----10----(3)---(0)---(1)----x----(1)-|
G|--9------10-----5------2----(9)---(10)----4-----0-----0-----12----0--|
D|-(10)----x-----(7)----(3)----10----10----(5)---(0)---(3)----10----2--|
A|--10-----12-----7------3-----7-----8------5-----x----(3)----10----3--|
E|--8------8------5------1-----x-----x------3-----3-----1-----x-----0--|

Basic fingerpicking pattern:


[Verse 1]

    C                                                            
e|------------------------------------------------------------------|
B|------------------------------------------------------------------|
G|--9-----9-----9-----9-------t-----9-----9-----9-----9-----9-------|
D|------------------------------------------------------------------|
A|-----t-----t-----t-----t--thw--w-----t-----t-----t-----t-----t----|
E|--8---8---8---8---8---8---8---8---8---8---8---8---8---8---8---8---|
    1 + 2 + 3 + 4 + 1 + 2 + 3 + 4 + 1 + 2 + 3 + 4 + 1 + 2 + 3 + 4 +
          When I grow...

    Am                      F       C                                
e|------------------------------------------------------------------|
B|------------------------------------------------------------------|
G|--5-----5-----5-----5-----0h2-----9-----9-----9-----9-----x-------|
D|----------------------------------------------------------x-------|
A|-----7-----7-----7-----7-------------t-----t-----t-----t--x-------|
E|--5---5---5---5---5---5---1-------8---8---8---8---8---8---x-------|
    1 + 2 + 3 + 4 + 1 + 2 + 3 + 4 + 1 + 2 + 3 + 4 + 1 + 2 + 3 + 4 +
                         Til the...

Listen to Jack play and apply this pattern to the other parts of the song.

Chords:

C                         F/C          C
  When I grow old I'll drink and smoke
                                           Am
Like I did when youth stayed, youth stayed
        F            C
Til the second round
C                      F/C          C
  When I grow old the sun will cope
                                        Am
Shine on every youth stain, youth stain
      F             C
Never settling down


C/E    FC
And no wonder I keep you close
C/E        FC      G
You're the water to quench my throat
    Am GF     G       Am
And if I  never let you go
         GF     Fsus2      C          F/C
Will you keep me young,      keep   me young


C                      F/C           C
  When I grow old my weathered soul
                C      CAm G    F
And memories re-cluse, e- lu-sive
            C           F/C
Help me dig   them out
C                           F/C       C
  So keep me young and call my bluffs
                     C   CAm G   F
And help me out when you say, you    say
                C
There's no room   for doubt


C/E    FC
Say I'm stronger and keep me  close
    C/E    FC      G
And be the water and test my   coat
    Am GF     G       Am
And if I  never let you go
         GF     Fsus2      C
Will you keep me young,      keep   me young


Am          G           F        C
Oh, when my heart stops beating
             F/C   C
And my blood turns cold
     Am          G           F       C
And, oh, when my heart stops beating
              F/C   C
And my breath won't flow
     Am          G           C/EF
And, oh, when my heart stops beating
When you go, I’ll know I’m...

| F | F Am | G | G C/E’ |
| F | F Am | G | C C/E’ |
| F | F Am | G | G C/E’ |
| F | F |


Am          G           F        C
Oh, when my heart stops beating
             F/C   C
And my blood turns cold
     Am          G           F       C
And, oh, when my heart stops beating
              F/C   C
And my breath won't flow
     Am          G           C/EF
And, oh, when my heart stops beating
When you go, I’ll know I’m...


C
  When I grow old, I'll drink and smoke
                    C   CAm  G     F
But just as long as you stay, you stay
                     C
I've found a way out



************************************

t - 10th fret
w - 12th fret
h - hammer-on

************************************
Suggest correction
Creating personal tab
Creating personal tab
You can edit any tab online and save it as your Personal.

You can edit, replace or remove any tab part or add personal notes – all changes will be seen only by you.

Personal tabs can be accessed anytime from any device, even offline.
Learn more »
comments
print report bad tab
4 comments total. Showing first comments.
0 reply
mattrile 10 Oct 31, 2015 06:42 AM

For the verse, 7 on the A in the Am shape sounds better, but great tab.

0 reply
m.verlijsdonk 10 Jan 08, 2016 10:31 PM

Anybody have a good tip to get the rythm down? I'm just not able to get the right plucking pattern.

0 reply
Henrikoyerhavn 10 Mar 06, 2016 03:00 AM

hey, this is great but I have a problem with the "C´" sound I didn´t get that when the lyric is "Re-clu-sive"

guest
You may want to rate the tab now too:
select rating
Wanna post a correction for this tab? Suggest correction