Oops, an error
Loading. Please wait.

Banana Pancakes Chords

version 2
version 2

Whole song

  • It's simplified, has corrected lyrics and chords, and fits on one page.
  • Fixing what the highest quality one missed.

Interactive

Video

47,431 views 129 this week
no commentswrite comment
1 2 3 4 5
x 4
add to favorites
launch autoscroll
font size
0
reset
transpose
0
reset
simplify chords
display chords
guitar tuner
Autoscroll
slow
fast
+/-
esc
set tempo
stop
Help us to improve Ultimate-Guitar.com Take our survey!
×
Difficulty
Capo
novice
5th fret
Artist: Jack Johnson
Song: Banana Pancakes
Tabbed by Oulianor Timothee
Capo 5th fret

[Chords] 
Am 577555
G  355433
D7 x57575
C7 x35353
D  x57775
Bm x24432
Em x79987
C  x35553

[Intro/Chorus]
Em D 

e|------------------x-5|
B|------------------x-5|
G|------------------x-5| 
D|------------------x-7| 
A|----5-------------x-7| 
E|5/7---7-5-3-0-3/5-x-5| 

e|----------------x-3-c|
D|----------------x-3--|
B|----------------x-4--|
G|----------------x-5--|
A|----5-----------x-5--|
E|5/7---7-5-3-0-3-x-3--|


(Second time around do this instead)
Em  D 

e|----------------x-5--|
B|----------------x-5--|
G|----------------x-5--|
D|----------------x-7--|
A|----5-7-5-------x-7--|
E|5/7-------7-0-5-x-5--|

e|----------------x-3-|
D|----------------x-3-|
B|----------------x-4-|
G|----------------x-5-|
A|----5-----------x-5-|
E|5/7---7-5-3-0-3-x-3-|

e|-x-x-5-5-|
B|-x-x-7-7-|
G|-x-x-5-5-|
D|-x-x-7-7-|
A|-x-x-5-5-|
E|-x-x-x-x-|

[Intro]
 Em 
Well can't you see that it's just raining?
  D 
There ain't no need to go outside.
A7 
But Baby!

[Verse]
D   A7 
You hardly even know this
AmC7 (when you strum upward, remove pinky and play x35333)
when i try to show you
DA7 
Song is meant to keep you
 EmG7 
from doing what you're supposed to
DA7 
wakin' up to early
Em G7 
maybe we could sleep
D   A7 
make you banana pancakes
Em   G7 
pretend like its the weekend

(fill on 'weekend')
e|----------|
B|----------|
G|----------|
D|----5-7-5-|
A|5/7-------|
E|----------|

[Chorus]
Em 
now
D 
we could pretend it all the time.
Em 
Can't you see that its just raining.
D 
Ain't no need to go outside.
 A7 
But just maybe!

[Verse 2]
Hala ka ukulele, mama made a baby.
Really don't mind to practice cause you're my little lady.
Lady lady love me cause I love to lay you lazy.
We could close the curtains pretend like theres no world

[Chorus]
Em 
now
D 
we could pretend it all the time.
Em 
Can't you see that its just raining.
D 
Ain't no need to go outside.
 A7 
But just maybe!

[Verse 3]
Then we could pretend it all the time.
cant you see that its just raining,
Ain't no need to go outside.

(just chords at this point, no fill)

Ain't no need Ain't no need.
mmmm  mmmm  mmmmm  mmmmm
Can't you see can't you see?
Rain all day and I don't mind.

[Bridge]
Em A 
But the telephones singin ringin its too early dont pick it up.
We don't need to
   Em A 
we got everything we need right here and everything we need is enough.
just so easy
 F#m 
When the whole world fits inside of your arms
  Bm   G 
do we really need to pay attention to the alarm?
 D A 
wake up slow,  mmmmm mmmmmm
 D 
wake up slow

[Verse 4]
But Baby!
You hardly even know this
when i try to show you
Song is meant to keep you from doing what you're supposed to.

(fill on 'supposed')
e|----------|
B|----------|
G|----------|
D|----5-7-5-|
A|5/7-------|
E|----------|

Wakin' up to early
maybe we could sleep
make you banana pancakes
pretend like its the weekend

[Chorus]
We could pretend it all the time.
cant you see that its just raining.
Ain't no need to go outside
aint no need aint no need.
Rain all day and I really really really don't mind.
Can't you see can't you see?
you gotta wake up slow.
Suggest correction
comments
print report bad tab
guest
You may want to rate the tab now too:
select rating
Wanna post a correction for this tab? Suggest correction