Oops, an error
Loading. Please wait.

Belle Tab

version 1
version 1

Solo

Whole song

Interactive

61 views 6 this week
no commentswrite comment
1 2 3 4 5
3 more votes to show rating
add to favorites
launch autoscroll
font size
0
reset
how to read this tab
guitar tuner
Autoscroll
slow
fast
+/-
esc
set tempo
stop
Help us to improve Ultimate-Guitar.com Take our survey!
×
Author
Difficulty
novice
This is the tab for the accordion melody in Belle. Just the basics, you can improve on it as you wish.
It works when accompanying the song played from a Gma7 base.
The asterisk (*) denotes where to repeat from.


[Solo]

e|-----------------------------------|
B|--------7---*3-5---3-5-6-6-6-8-6-5-|
G|------7----------------------------|
D|--7-9------------------------------|
A|-----------------------------------|
E|-----------------------------------|

e|-----------------------------------|
B|--------7---3-5---3-12---12-13-----|
G|------7----------------------------|
D|--7-9------------------------------|
A|-----------------------------------|
E|-----------------------------------|

e|-------------------------------------------|
B|-------------------------------------------|
G|--12-12-14-12-11---9-11-12-12-12-14-12-11--|
D|-------------------------------------------|
A|-------------------------------------------|
E|-------------------------------------------|

e|-----------------------------------------------------|
B|--------------------15-13-12--(repeat from asterisk)-|
G|--7-11---12---14-12----------------------------------|
D|-----------------------------------------------------|
A|-----------------------------------------------------|
E|-----------------------------------------------------|

Oi linda,
Bella che fa?
Bonita, bonita que tal?
But, Belle,
Je ne comprends pas francais
So you'll have to speak to me
Some other way.
Suggest correction
Give kudos to tab author, rate the tab!
1 2 3 4 5
comments
print report bad tab
guest
You may want to rate the tab now too:
select rating
Wanna post a correction for this tab? Suggest correction