Oops, an error
Loading. Please wait.

Belle ukulele

version 2
version 2

Whole song

  • Only available belle riff on ukulele on ultimate-guitar.

Interactive

406 views 9 this week
no commentswrite comment
1 2 3 4 5
3 more votes to show rating
add to favorites
×
Save as Personal and add changes to this tab that will be seen only by you. Learn more ›
×
You can save this tab as Personal to edit and correct it or add notes. All changes will be seen only by you. Learn more »
launch autoscroll
font size
0
reset
transpose
0
reset
display chords
guitar tuner
edit
Autoscroll
slow
fast
+/-
esc
set tempo
stop
Author
Difficulty
About this tab version
Only available belle riff on ukulele on ultimate-guitar. Was this info helpful? Yes No
Strumming
There is no strumming pattern for this song yet. and get +5 IQ
[Riff played] x3 
(once intro, once accordion solo, once singing)
A|-----------------------------------------|
E|-7---7-7--7----6---6-6--6----7---7-7--7--|
C|-6---6-4-4-4---5---5-4-4-4---6---6-4-4-4-|
G|0-0-0-0-0---0-0-0-0-0-0---0-0-0 0-0-0---0|

A|-----------------------------------------------------|
E|---------------------2---2--------------------3-3-3-3|
C|---------------------2---2--------------------3-3-3-3|
G|(in placement of Bm)4-4-4-(slide down 1 fret)6-6-----|

A|----------------------------------------|
E|-0---0-2--2--0---0-4-----4--7---7-8--8--|
C|-0---0-0-0-0-0---0-0-0 3h 3-6---6-7-7-7-|
G|2-2-2-2-2---2-2 2-1-1------0-0-0-5-5---5|

A|---------------|
E|-0---0-4-----4-|
C|-0---0-0-0-3h-3|
G|2-2-2-1-1------| repeat it all

[Ending]
(after repeated 3 times)
A|------------------|
E|-7---7-7----------|
C|-6---6-6(let ring)|
G|0-0-0-------------|

Oi linda,
Bella che fa?
Bonita, bonita que tal?
But, Belle,
Je ne comprends pas francais
So you'll have to speak to me
Some other way.



************************************

| h  Hammer-on 

************************************

            
            
Suggest correction
Creating personal tab
Creating personal tab
You can edit any tab online and save it as your Personal.

You can edit, replace or remove any tab part or add personal notes – all changes will be seen only by you.

Personal tabs can be accessed anytime from any device, even offline.
Learn more »
Give kudos to tab author, rate the tab!
1 2 3 4 5
comments
print report bad tab
guest
You may want to rate the tab now too:
select rating
Wanna post a correction for this tab? Suggest correction